» » »

Kinky Reggae Tabs (ver.1)

Artists:  A B C D E F G H I J K L M N O P Q R S T U V W X Y Z # 

Kinky Reggae Tabs (ver.1)

Hurriganes
Rating:
0/5 (0 votes)

Hard to play? Try these video lessons and learn fast.
                Hurriganes- Kinky Reggae

Intro
e|---------------------------------------------------------------------------|
B|---------------------------------------------------------------------------|
G|----2--------------2-------------2---------------2-------------2-----------|
D|-------4---5---4-------4-5---2h4-----4---5---4-------4-5---2h4-------------|
A|--0------0---0---0---0-----0-------0---0---0---0---0-----0-----------------|
E|---------------------------------------------------------------------------|

e|---------------------------------------------------------------------------|
B|-------------------------------------------------5-5-5---------------------|
G|-----------------2-------------2-------------4b6-hold--r4-2----------------|
D|-----4---5---4-------4-5---2h4-----4---5---4----------------4-2------------|
A|---0---0---0---0---0-----0-------0---0---0---------------------------------|
E|---------------------------------------------------------------------------|

Verse
e|---------------------------------------------------------------------------|
B|---------------------------------------------------------------------------|
G|------------------------------------------------2--------------------------|
D|----------------------------------2-2-4-2-2-2-4-2--2-4-2-2-2-4-2-----------|
A|--2-2-----2-2-4-2-2-2-----2-2-4-2-0-0-0-0-0-0-0-0--0-0-0-0-0-0-0-----------|
E|--0-0-3-4-0-0-0-0-0-0-3-4-0-0-0-0------------------------------------------|

e|---------------------------------------------------------------------------|
B|---------------------------------------------------------------------------|
G|------------------------------------------------2--------------------------|
D|----------------------------------2-2-4-2-2-2-4-2--2-4-2-2-2-4-2-----------|
A|--2-2-----2-2-4-2-2-2-----2-2-4-2-0-0-0-0-0-0-0-0--0-0-0-0-0-0-0-----------|
E|--0-0-3-4-0-0-0-0-0-0-3-4-0-0-0-0------------------------------------------|

e|---------------------------------------------------------------------------|
B|---------------------------------------------------------------------------|
G|------------------------------------------------2--------------------------|
D|----------------------------------2-2-4-2-2-2-4-2--2-4-2-2-2-4-2-----------|
A|--2-2-----2-2-4-2-2-2-----2-2-4-2-0-0-0-0-0-0-0-0--0-0-0-0-0-0-0-----------|
E|--0-0-3-4-0-0-0-0-0-0-3-4-0-0-0-0------------------------------------------|

e|---------------------------------------------------------------------------|
B|---------------------------------------------------------------------------|
G|--------------------------------------7--7--7--7--7----2-2-2-2-2-4b6-4b6r4-|
D|--------------------------------------7--7--7--7--7----2-2-2-2-2-----------|
A|--2-2-----2-2-4-2-2-2-----2-2-4-2--/5-5--5--5--5--5--0-0-0-0-0-0-----------|
E|--0-0-3-4-0-0-0-0-0-0-3-4-0-0-0-0------------------------------------------|

Verse
e|---------------------------------------------------------------------------|
B|---------------------------------------------------------------------------|
G|------------------------------------------------2--------------------------|
D|----------------------------------2-2-4-2-2-2-4-2--2-4-2-2-2-4-2-----------|
A|--2-2-----2-2-4-2-2-2-----2-2-4-2-0-0-0-0-0-0-0-0--0-0-0-0-0-0-0-----------|
E|--0-0-3-4-0-0-0-0-0-0-3-4-0-0-0-0------------------------------------------|

e|---------------------------------------------------------------------------|
B|---------------------------------------------------------------------------|
G|------------------------------------------------2--------------------------|
D|----------------------------------2-2-4-2-2-2-4-2--2-4-2-2-2-4-2-----------|
A|--2-2-----2-2-4-2-2-2-----2-2-4-2-0-0-0-0-0-0-0-0--0-0-0-0-0-0-0-----------|
E|--0-0-3-4-0-0-0-0-0-0-3-4-0-0-0-0------------------------------------------|

e|---------------------------------------------------------------------------|
B|---------------------------------------------------------------------------|
G|------------------------------------------------2--------------------------|
D|----------------------------------2-2-4-2-2-2-4-2--2-4-2-2-2-4-2-----------|
A|--2-2-----2-2-4-2-2-2-----2-2-4-2-0-0-0-0-0-0-0-0--0-0-0-0-0-0-0-----------|
E|--0-0-3-4-0-0-0-0-0-0-3-4-0-0-0-0------------------------------------------|

e|---------------------------------------------------------------------------|
B|---------------------------------------------------------------------------|
G|--------------------------------------7--7--7--7--7----2-2-----------------|
D|--------------------------------------7--7--7--7--7----2-2-----------------|
A|--2-2-----2-2-4-2-2-2-----2-2-4-2--/5-5--5--5--5--5--0-0-0-0-0-2-2-3-3-4-4-|
E|--0-0-3-4-0-0-0-0-0-0-3-4-0-0-0-0------------------------------------------|

Bridge
e|---------------------------------------------------------------------------|
B|---------------------------------------------------------------------------|
G|---------------------------------------------------------------------------|
D|--7-7-9-7-7-7-9-7-7-7-9-7-7-7-9-7------------------------------------------|
A|--5-5-5-5-5-5-5-5-5-5-5-5-5-5-5-5-7-7-9-7-7-7-9-7-7-7-9-7-7-7-9-7----------|
E|----------------------------------5-5-5-5-5-5-5-5-5-5-5-5-5-5-5-5----------|

e|---------------------------------------------------------------------------|
B|---------------------------------------------------------------------------|
G|---------------------------------------------------------------------------|
D|--7-7-9-7-7-7-9-7-7-7-9-7-7-7-9-7-9-9-9-9-9-9-9-9-9-9-9-9-9-9-9------------|
A|--5-5-5-5-5-5-5-5-5-5-5-5-5-5-5-5-7-7-7-7-7-7-7-7-7-7-7-7-7-7-7------------|
E|---------------------------------------------------------------------------|

e|---------------------------------------------------------------------------|
B|-------------------------------------------------5-5-5---------------------|
G|---2-------------2-------------2-------------4b6-hold--r4-2----------------|
D|-----4---5---4-------4-5---2h4-----4---5---4----------------4-2------------|
A|-0-----0---0---0---0-----0-------0---0---0---------------------------------|
E|---------------------------------------------------------------------------|

Solo
e|-------------------------------5---5---------------------------------------|
B|---------------------------------------------5-----5-----5-----5-----5-----|
G|--7b9r7b9-r7p5-7-5h6-------5h6---7---5h6-7b9---7b9---7b9---7b9---7b9-------|
D|---------------------7-5-7-------------------------------------------------|
A|---------------------------------------------------------------------------|
E|---------------------------------------------------------------------------|

e|--------5----9----5-------------10----10-----------------------------------|
B|-----------------------10--------------------------------------------------|
G|--7-5b6---/9----6---11----10h11----12----10h11----------10h11--------------|
D|-----------------------------------------------12-10-12-------12-----------|
A|---------------------------------------------------------------------------|
E|---------------------------------------------------------------------------|

e|------5-----8b9-5----------------------------------------------------------|
B|------------------5---------------------13-----13-----13-----13-----13-----|
G|--5h6---7-5---------7p6p5---------5-/14-14-/14-14-/14-14-/14-14-/14-14-----|
D|--------------------------7p6p5-7------------------------------------------|
A|---------------------------------------------------------------------------|
E|---------------------------------------------------------------------------|

e|-------12----12-------------16---------------------------------------------|
B|---------------------------------------------------------------------------|
G|-12h13----14----12h13-14/16------------------------------------------------|
D|---------------------------------------------------------------------------|
A|---------------------------------------------------------------------------|
E|---------------------------------------------------------------------------|

e|---------------------------------------------------------------------------|
B|-------------------------------------------------5-5-5---------------------|
G|---2-------------2-------------2-------------4b6-hold--r4-2----------------|
D|-----4---5---4-------4-5---2h4-----4---5---4----------------4-2------------|
A|-0-----0---0---0---0-----0-------0---0---0---------------------------------|
E|---------------------------------------------------------------------------|

Verse
e|---------------------------------------------------------------------------|
B|---------------------------------------------------------------------------|
G|------------------------------------------------2--------------------------|
D|----------------------------------2-2-4-2-2-2-4-2--2-4-2-2-2-4-2-----------|
A|--2-2-----2-2-4-2-2-2-----2-2-4-2-0-0-0-0-0-0-0-0--0-0-0-0-0-0-0-----------|
E|--0-0-3-4-0-0-0-0-0-0-3-4-0-0-0-0------------------------------------------|

e|---------------------------------------------------------------------------|
B|---------------------------------------------------------------------------|
G|------------------------------------------------2--------------------------|
D|----------------------------------2-2-4-2-2-2-4-2--2-4-2-2-2-4-2-----------|
A|--2-2-----2-2-4-2-2-2-----2-2-4-2-0-0-0-0-0-0-0-0--0-0-0-0-0-0-0-----------|
E|--0-0-3-4-0-0-0-0-0-0-3-4-0-0-0-0------------------------------------------|

e|---------------------------------------------------------------------------|
B|---------------------------------------------------------------------------|
G|------------------------------------------------2--------------------------|
D|----------------------------------2-2-4-2-2-2-4-2--2-4-2-2-2-4-2-----------|
A|--2-2-----2-2-4-2-2-2-----2-2-4-2-0-0-0-0-0-0-0-0--0-0-0-0-0-0-0-----------|
E|--0-0-3-4-0-0-0-0-0-0-3-4-0-0-0-0------------------------------------------|

e|---------------------------------------------------------------------------|
B|---------------------------------------------------------------------------|
G|--------------------------------------7--7--7--7--7----2-2-2-2-2-2-2-2-2-2-|
D|--------------------------------------7--7--7--7--7----2-2-2-2-2-2-2-2-2-2-|
A|--2-2-----2-2-4-2-2-2-----2-2-4-2--/5-5--5--5--5--5--0-0-0-0-0-0-0-0-0-0-0-|
E|--0-0-3-4-0-0-0-0-0-0-3-4-0-0-0-0------------------------------------------|

Chorus
e|---------------------------------------------------------------------------|
B|---------------------------------------------------------------------------|
G|------------------------2--2--2--2--2--------------------------------------|
D|-----2--2--2--2--2------2--2--2--2--2-----2--2--2--2--2--------------------|
A|-----2--2--2--2--2---0--0--0--0--0--0-----2--2--2--2--2--------------------|
E|--0--0--0--0--0--0---------------------0--0--0--0--0--0--------------------|

e|---------------------------------------------------------------------------|
B|--7b9-7-5--------------13-12-----------------------------------------------|
G|----------8-7-5h6------13-12-----------------------------------------------|
D|------------------7-5--12-11-----------------------------------------------|
A|-----------------------13-12-----------------------------------------------|
E|---------------------------------------------------------------------------|
            
Hard to play? Try these video lessons and learn fast. | Correct




comments powered by Disqus
↑ Back to top | Tablatures and chords are parodies/interpretations of the original songs. You may use it for private study, scholarship, research or language learning purposes only