>
 >
Jailbait Stalemate

Jailbait Stalemate Guitar Tabs

Hurriganes - Jailbait Stalemate chords, tabs, tablatures, lyrics

Guitar lessons | Add/correct | Request | Top 50 tabs Artists:  A B C D E F G H I J K L M N O P Q R S T U V W X Y Z 0-9

Jailbait Stalemate Guitar Tabs – Hurriganes

CD, Sheet music, Poster

Do you like Jailbait Stalemate? Share with your friends now
Tabs
-------------------------------------------------------------------------------
Hurriganes-Jailbait stalemate
(Aaltonen-Häkkinen-Kallio)
-------------------------------------------------------------------------------

Intro
e|---------------------------------------------------------------|
B|--14b16-14b16^16r14-12-14-12-----------14-12-------------------|
G|--14b16-14b16^16r14-12-14-12-----------14-12-------------------|
D|------------------------------14-12-14-------14-12-------------|
A|---------------------------------------------------------------|
E|---------------------------------------------------------------|


e|---------------------------------------------------------------|
B|--15b17-15b17-15b17--12-14b15-14b15r14-12-------12-------------|
G|------------------------------------------14b16----------------|
D|---------------------------------------------------------------|
A|---------------------------------------------------------------|
E|---------------------------------------------------------------|


e|---------------------------------------------------------------|
B|--14b16-14b16^16r14-12-14-12-----------14-12-------------------|
G|--14b16-14b16^16r14-12-14-12-----------14-12-------------------|
D|------------------------------14-12-14-------14-12-------------|
A|---------------------------------------------------------------|
E|---------------------------------------------------------------|


e|---------------------------------------------------------------|
B|--15b17-15b17-15b17--12-15-14-12-------------------------------|
G|---------------------------------14/16--16\--------------------|
D|---------------------------------------------------------------|
A|---------------------------------------------------------------|
E|---------------------------------------------------------------|

Verse
e|---------------------------------------------------------------------------|
B|---------------------------------------------------------------------------|
G|---------------------------------------------------------------------------|
D|--9--9-9-9-------------------------9--9-9-9--------------------------------|
A|--7--7-7-7---5-5-5-5-5--7-7-7-7----7--7-7-7---5-5-5-5-5--7-7-7-7-----------|
E|-------------3-3-3-3-3--5-5-5-5---------------3-3-3-3-3--5-5-5-5-----------|


e|---------------------------------------------------------------------------|
B|---------------------------------------------------------------------------|
G|---------------------------------------------------------------------------|
D|--9--9-9-9-------------------------9--9-9-9--------------------------------|
A|--7--7-7-7---5-5-5-5-5--7-7-7-7----7--7-7-7---5-5-5-5-5--7-7-7-7-----------|
E|-------------3-3-3-3-3--5-5-5-5---------------3-3-3-3-3--5-5-5-5-----------|


e|---------------------------------------------------------------------------|
B|---------------------------------------------------------------------------|
G|---------------------------------------------------------------------------|
D|--9--9-9-9-------------------------9--9-9-9--------------------------------|
A|--7--7-7-7---5-5-5-5-5--7-7-7-7----7--7-7-7---5-5-5-5-5--7-7-7-7-----------|
E|-------------3-3-3-3-3--5-5-5-5---------------3-3-3-3-3--5-5-5-5-----------|
 |                                                                           |
e|---------------------------------------------------------------------------|
B|---------------------------------------------------------------------------|
G|---------------------------------------------------------------------------|
D|-----------------------------------9-9-9-9-9-9-9-12-11-9-7-9-9-------------|
A|-----------------------------------7-7-7-7-7-7-7-10--9-7-5-7-7-------------|
E|---------------------------------------------------------------------------|


e|---------------------------------------------------------------------------|
B|---------------------------------------------------------------------------|
G|---------------------------------------------------------------------------|
D|--9--9-9-9-----------------------------------------------------------------|
A|--7--7-7-7-5-5-5-5-5-7-7-7-7-9--9-9-9-9-9-9-9-9-9-9-9-9-9-9----------------|
E|-----------3-3-3-3-3-5-5-5-5-7--7-7-7-7-7-7-7-7-7-7-7-7-7-7----------------|

Chorus
e|---------------------------------------------------------------------------|
B|---------------------------------------------------------------------------|
G|---------------------------------------------------------------------------|
D|--7--7-7-7-7-7-7-7-7-7-7-7-7-7-7-------------------------------------------|
A|--5--5-5-5-5-5-5-5-5-5-5-5-5-5-5--9--9-9-9-9-9-9-9-9-9-9-9-9-9-9-----------|
E|----------------------------------7--7-7-7-7-7-7-7-7-7-7-7-7-7-7-----------|


e|---------------------------------------------------------------------------|
B|---------------------------------------------------------------------------|
G|---------------------------------------------------------------------------|
D|--7--7-7-7-7-7-7---9-9-11-12-----------------------------------------------|
A|--5--5-5-5-5-5-5---7-7--9-10-----------------------------------------------|
E|---------------------------------------------------------------------------|

e|---------------------------------------------------------------|
B|--14b16-14b16^16r14-12-14-12-----------14-12-------------------|
G|--14b16-14b16^16r14-12-14-12-----------14-12-------------------|
D|------------------------------14-12-14-------14-12-------------|
A|---------------------------------------------------------------|
E|---------------------------------------------------------------|


e|---------------------------------------------------------------|
B|--15b17-15b17-15b17--12-14b15-14b15r14-12-------12-------------|
G|------------------------------------------14b16----------------|
D|---------------------------------------------------------------|
A|---------------------------------------------------------------|
E|---------------------------------------------------------------|


e|---------------------------------------------------------------|
B|--14b16-14b16^16r14-12-14-12-----------14-12-------------------|
G|--14b16-14b16^16r14-12-14-12-----------14-12-------------------|
D|------------------------------14-12-14-------14-12-------------|
A|---------------------------------------------------------------|
E|---------------------------------------------------------------|


e|---------------------------------------------------------------|
B|--15b17-15b17-15b17--12-15-14-12-------------------------------|
G|---------------------------------14/16--16\--------------------|
D|---------------------------------------------------------------|
A|---------------------------------------------------------------|
E|---------------------------------------------------------------|

Verse
e|---------------------------------------------------------------------------|
B|---------------------------------------------------------------------------|
G|---------------------------------------------------------------------------|
D|--9--9-9-9-------------------------9--9-9-9--------------------------------|
A|--7--7-7-7---5-5-5-5-5--7-7-7-7----7--7-7-7---5-5-5-5-5--7-7-7-7-----------|
E|-------------3-3-3-3-3--5-5-5-5---------------3-3-3-3-3--5-5-5-5-----------|


e|---------------------------------------------------------------------------|
B|---------------------------------------------------------------------------|
G|---------------------------------------------------------------------------|
D|--9--9-9-9-------------------------9--9-9-9--------------------------------|
A|--7--7-7-7---5-5-5-5-5--7-7-7-7----7--7-7-7---5-5-5-5-5--7-7-7-7-----------|
E|-------------3-3-3-3-3--5-5-5-5---------------3-3-3-3-3--5-5-5-5-----------|


e|---------------------------------------------------------------------------|
B|---------------------------------------------------------------------------|
G|---------------------------------------------------------------------------|
D|--9--9-9-9-------------------------9--9-9-9--------------------------------|
A|--7--7-7-7---5-5-5-5-5--7-7-7-7----7--7-7-7---5-5-5-5-5--7-7-7-7-----------|
E|-------------3-3-3-3-3--5-5-5-5---------------3-3-3-3-3--5-5-5-5-----------|
 |                                                                           |
e|---------------------------------------------------------------------------|
B|---------------------------------------------------------------------------|
G|---------------------------------------------------------------------------|
D|-----------------------------------9-9-9-9-9-9-9-12-11-9-7-9-9-------------|
A|-----------------------------------7-7-7-7-7-7-7-10--9-7-5-7-7-------------|
E|---------------------------------------------------------------------------|


e|---------------------------------------------------------------------------|
B|---------------------------------------------------------------------------|
G|---------------------------------------------------------------------------|
D|--9--9-9-9-----------------------------------------------------------------|
A|--7--7-7-7-5-5-5-5-5-7-7-7-7-9--9-9-9-9-9-9-9-9-9-9-9-9-9-9----------------|
E|-----------3-3-3-3-3-5-5-5-5-7--7-7-7-7-7-7-7-7-7-7-7-7-7-7----------------|

Chorus
e|---------------------------------------------------------------------------|
B|---------------------------------------------------------------------------|
G|---------------------------------------------------------------------------|
D|--7--7-7-7-7-7-7-7-7-7-7-7-7-7-7-------------------------------------------|
A|--5--5-5-5-5-5-5-5-5-5-5-5-5-5-5--9--9-9-9-9-9-9-9-9-9-9-9-9-9-9-----------|
E|----------------------------------7--7-7-7-7-7-7-7-7-7-7-7-7-7-7-----------|


e|---------------------------------------------------------------------------|
B|---------------------------------------------------------------------------|
G|---------------------------------------------------------------------------|
D|--7--7-7-7-7-7-7---9-9-11-12-----------------------------------------------|
A|--5--5-5-5-5-5-5---7-7--9-10-----------------------------------------------|
E|---------------------------------------------------------------------------|

Solo
e|---------------------------------------------------------------------------|
B|---------------------------------------------------------------------------|
G|--14b16r14-14b16r14-14b16r14-14b16r14-12-14-12-12-12----------12b14-12-----|
D|-----------------------------------------------------14-12-14--------------|
A|---------------------------------------------------------------------------|
E|---------------------------------------------------------------------------|

e|---------------------------------------------------------------------------|
B|---------------------------12-15-------12-15-------12-15p12----------------|
G|------------------12-14b16-------14b16-------14b16-----------14b16---------|
D|--14p12-----12-14----------------------------------------------------------|
A|--------14-----------------------------------------------------------------|
E|---------------------------------------------------------------------------|


e|-----------------------------------------------------------------12--------|
B|--12-15p12-------12-15p12-------12-15p12-------12-15p12-------12----15-----|
G|-----------14b16----------14b16----------14b16----------14b16--------------|
D|---------------------------------------------------------------------------|
A|---------------------------------------------------------------------------|
E|---------------------------------------------------------------------------|

    hold
e|----------------------------------------------------15b17-15-12------------|
B|--15b17-17-17-17-17-17-17-17-17-17-17-17-17-17r15---------------12---------|
G|---------------------------------------------------------------------------|
D|---------------------------------------------------------------------------|
A|---------------------------------------------------------------------------|
E|---------------------------------------------------------------------------|

e|---------12------------------------------------------------------------------------|
B|---15b17----12--15p12----12----------------14-12-----------------------------------|
G|----------------------14----14/16-14-12----14-12-----------------------------------|
D|----------------------------------------14-------14-12-----------------------------|
A|-------------------------------------------------------14\12\10-12-10--------------|
E|----------------------------------------------------------------------12-10-10-12--|

Chorus
e|---------------------------------------------------------------------------|
B|---------------------------------------------------------------------------|
G|---------------------------------------------------------------------------|
D|--7--7-7-7-7-7-7-7-7-7-7-7-7-7-7-------------------------------------------|
A|--5--5-5-5-5-5-5-5-5-5-5-5-5-5-5--9--9-9-9-9-9-9-9-9-9-9-9-9-9-9-----------|
E|----------------------------------7--7-7-7-7-7-7-7-7-7-7-7-7-7-7-----------|


e|---------------------------------------------------------------------------|
B|---------------------------------------------------------------------------|
G|---------------------------------------------------------------------------|
D|--7--7-7-7-7-7-7---9-9-11-12-----------------------------------------------|
A|--5--5-5-5-5-5-5---7-7--9-10-----------------------------------------------|
E|---------------------------------------------------------------------------|

e|---------------------------------------------------------------|
B|--14b16-14b16^16r14-12-14-12-----------14-12-------------------|
G|--14b16-14b16^16r14-12-14-12-----------14-12-------------------|
D|------------------------------14-12-14-------14-12-------------|
A|---------------------------------------------------------------|
E|---------------------------------------------------------------|


e|---------------------------------------------------------------|
B|--15b17-15b17-15b17--12-14b15-14b15r14-12-------12-------------|
G|------------------------------------------14b16----------------|
D|---------------------------------------------------------------|
A|---------------------------------------------------------------|
E|---------------------------------------------------------------|


e|---------------------------------------------------------------|
B|--14b16-14b16^16r14-12-14-12-----------14-12-------------------|
G|--14b16-14b16^16r14-12-14-12-----------14-12-------------------|
D|------------------------------14-12-14-------14-12-------------|
A|---------------------------------------------------------------|
E|---------------------------------------------------------------|


e|-------15------15----------------------------------------------|
B|--15b17---15b17---15b17r-12-15-14-12---------------------------|
G|-------------------------------------14/16--16\----------------|
D|---------------------------------------------------------------|
A|---------------------------------------------------------------|
E|---------------------------------------------------------------|

Verse
e|---------------------------------------------------------------------------|
B|---------------------------------------------------------------------------|
G|---------------------------------------------------------------------------|
D|--9--9-9-9-------------------------9--9-9-9--------------------------------|
A|--7--7-7-7---5-5-5-5-5--7-7-7-7----7--7-7-7---5-5-5-5-5--7-7-7-7-----------|
E|-------------3-3-3-3-3--5-5-5-5---------------3-3-3-3-3--5-5-5-5-----------|


e|---------------------------------------------------------------------------|
B|---------------------------------------------------------------------------|
G|---------------------------------------------------------------------------|
D|--9--9-9-9-------------------------9--9-9-9--------------------------------|
A|--7--7-7-7---5-5-5-5-5--7-7-7-7----7--7-7-7---5-5-5-5-5--7-7-7-7-----------|
E|-------------3-3-3-3-3--5-5-5-5---------------3-3-3-3-3--5-5-5-5-----------|


e|---------------------------------------------------------------------------|
B|---------------------------------------------------------------------------|
G|---------------------------------------------------------------------------|
D|--9--9-9-9-------------------------9--9-9-9--------------------------------|
A|--7--7-7-7---5-5-5-5-5--7-7-7-7----7--7-7-7---5-5-5-5-5--7-7-7-7-----------|
E|-------------3-3-3-3-3--5-5-5-5---------------3-3-3-3-3--5-5-5-5-----------|
 |                                                                           |
e|---------------------------------------------------------------------------|
B|---------------------------------------------------------------------------|
G|---------------------------------------------------------------------------|
D|-----------------------------------9-9-9-9-9-9-9-12-11-9-7-9-9-------------|
A|-----------------------------------7-7-7-7-7-7-7-10--9-7-5-7-7-------------|
E|---------------------------------------------------------------------------|


e|---------------------------------------------------------------------------|
B|---------------------------------------------------------------------------|
G|---------------------------------------------------------------------------|
D|--9--9-9-9-----------------------------------------------------------------|
A|--7--7-7-7-5-5-5-5-5-7-7-7-7-9--9-9-9-9-9-9-9-9-9-9-9-9-9-9----------------|
E|-----------3-3-3-3-3-5-5-5-5-7--7-7-7-7-7-7-7-7-7-7-7-7-7-7----------------|

Chorus
e|---------------------------------------------------------------------------|
B|---------------------------------------------------------------------------|
G|---------------------------------------------------------------------------|
D|--7--7-7-7-7-7-7-7-7-7-7-7-7-7-7-------------------------------------------|
A|--5--5-5-5-5-5-5-5-5-5-5-5-5-5-5--9--9-9-9-9-9-9-9-9-9-9-9-9-9-9-----------|
E|----------------------------------7--7-7-7-7-7-7-7-7-7-7-7-7-7-7-----------|

e|---------------------------------------------------------------------------|
B|---------------------------------------------------------------------------|
G|---------------------------------------------------------------------------|
D|--7--7-7-7-7-7-7---9-9-11-12-----------------------------------------------|
A|--5--5-5-5-5-5-5---7-7--9-10-----------------------------------------------|
E|---------------------------------------------------------------------------|

Outro
e|---------12----------------------------------------12-------12-------------|
B|---15b17----15-14-12----------------------------12----15b17----15-12-------|
G|---------------------15-14-12----14----12-14b16----------------------14----|
D|------------------------------14----14-------------------------------------|
A|---------------------------------------------------------------------------|
E|---------------------------------------------------------------------------|

e|---------------------------------------------------------------------------|
B|---12----------------------------------------------------------------------|
G|------15-14-12-14-12---------------------------------------9\--------------|
D|---------------------14-12-----------------------7b8-7b8---9\--------------|
A|---------------------------14\12\10-12-10------------------7\--------------|
E|------------------------------------------12-12----------------------------|





Comments


Popular Hurriganes tabs & chords
I Will Stay Chords
Keep On Movin Chords
Brand New Sucker Tabs
Get On 1 Tabs
Hold Me Tight Tabs
It Ain't What You Do Tabs
Kinky Reggae Tabs
Roadrunner 2 Tabs
Keep On Movin Ukulele
My Only One Ukulele


Song lyrics



↑ Back to top | Tablatures and chords are parodies/interpretations of the original songs. You may use it for private study, scholarship, research or language learning purposes only
© 2014 AZChords.com Contact us | Privacy policy | DMCA | Add/correct tabs | Request tabs | Top 50 tabs