» » »

Im Ready Tabs (ver.1)

Artists:  A B C D E F G H I J K L M N O P Q R S T U V W X Y Z # 

Im Ready Tabs (ver.1)

Hurriganes
Rating:
0/5 (0 votes)

Tabs too difficult? Try these video lessons and learn fast.
                -------------------------------------------------------------------------------
Hurriganes-I'm Ready
-------------------------------------------------------------------------------

Intro
e|---5--5--5--5--5----------------|
B|---5--5--5--5--5--7--5----------|
G|------------------7--5----------|
D|------------------------7-------|
A|--------------------------------|
E|--------------------------------|

Verse 1&2
e|---------------------------------------------------------------------------|
B|---------------------------------------------------------------------------|
G|---------------------------------------------------------------------------|
D|---------------------------------------------------------------------------|
A|--7-7-9-7-7-7-9-7-7-7-9-7-7-7-9-7-7-7-9-7-7-7-9-7-7-7-9-7-7-7-9-7----------|
E|--5-5-5-5-5-5-5-5-5-5-5-5-5-5-5-5-5-5-5-5-5-5-5-5-5-5-5-5-5-5-5-5----------|

e|---------------------------------------------------------------------------|
B|---------------------------------------------------------------------------|
G|---------------------------------------------------------------------------|
D|--7-7-9-7-7-7-9-7-7-7-9-7-7-7-9-7------------------------------------------|
A|--5-5-5-5-5-5-5-5-5-5-5-5-5-5-5-5-7-7-9-7-7-7-9-7-7-7-9-7-7-7-9-7----------|
E|----------------------------------5-5-5-5-5-5-5-5-5-5-5-5-5-5-5-5----------|

e|---------------------------------------------------------------------------|
B|---------------------------------------------------------------------------|
G|---------------------------------------------------------------------------|
D|---9-9-119-9-9-119-9-9-119-9-9-119-----------------------------------------|
A|---7-7-7-7-7-7-7-7-7-7-7-7-7-7-7-7-7-7-7-7-7-7-7-7-7-7-7-7-7-7-7-7---------|
E|-----------------------------------5-5-5-5-5-5-5-5-5-5-5-5-5-5-5-5---------|

Verse 3
e|---------------------------------------------------------------------------|
B|---------------------------------------------------------------------------|
G|---------------------------------------------------------------------------|
D|---------------------------------------------------------------------------|
A|---8-8-8-8-8-8-8-8-8-8-8-8-8-8-8-8-8-8-8-8-8-8-8-8-8-8-8-8-8-8-8-8---------|
E|---6-6-6-6-6-6-6-6-6-6-6-6-6-6-6-6-6-6-6-6-6-6-6-6-6-6-6-6-6-6-6-6---------|

e|---------------------------------------------------------------------------|
B|---------------------------------------------------------------------------|
G|---------------------------------------------------------------------------|
D|---8-8-8-8-8-8-8-8-8-8-8-8-8-8-8-8-----------------------------------------|
A|---6-6-6-6-6-6-6-6-6-6-6-6-6-6-6-6-8-8-8-8-8-8-8-8-8-8-8-8-8-8-8-8---------|
E|-----------------------------------6-6-6-6-6-6-6-6-6-6-6-6-6-6-6-6---------|

e|---------------------------------------------------------------------------|
B|---------------------------------------------------------------------------|
G|---------------------------------------------------------------------------|
D|--10-10-10-10-10-10-10-10-8-8-8-8-8-8-8-8----------------------------------|
A|---8--8--8--8--8--8--8--8-6-6-6-6-6-6-6-6-8-8-8-8-8-8-8-8-8-8-8-8-8-8-8-8--|
E|------------------------------------------6-6-6-6-6-6-6-6-6-6-6-6-6-6-6-6--|

Solo
e|---------------------------------------------------------------------------|
B|-/-9--9--9-/-9--9--9-/-9--9-/-9--9--9-/-9--9--9-/-9--9-/-9--9--9-/-9--9--9-|
G|-/10-10-10-/10-10-10-/10-10-/10-10-10-/10-10-10-/10-10-/10-10-10-/10-10-10-|
D|---------------------------------------------------------------------------|
A|---------------------------------------------------------------------------|
E|---------------------------------------------------------------------------|

e|-----------------------------------------------------------------6------6--|
B|--9-/-9--9--9-/-9--9--9--9--8-8-8-6-8-8-8-6-8-8-8-6-8-8-8-6----------------|
G|-10-/10-10-10-/10-10-10-10--8-8-8-6-8-8-8-6-8-8-8-6-8-8-8-6-8b10---8b10----|
D|---------------------------------------------------------------------------|
A|---------------------------------------------------------------------------|
E|---------------------------------------------------------------------------|

e|------6------6------6------6------6------6------6------6------6------------|
B|---------------------------------------------------------------------------|
G|-8b10---8b10---8b10---8b10---8b10---8b10---8b10---8b10---8b10--------------|
D|---------------------------------------------------------------------------|
A|---------------------------------------------------------------------------|
E|---------------------------------------------------------------------------|

e|---8-6---------------------------------------------------------------------|
B|-------9-8-6---6------6----------------------------------------------------|
G|-------------8---8b10---8-6h7----------------------------------------------|
D|------------------------------8--------------------------------------------|
A|---------------------------------------------------------------------------|
E|---------------------------------------------------------------------------|

Verse 4
e|---------------------------------------------------------------------------|
B|---------------------------------------------------------------------------|
G|---------------------------------------------------------------------------|
D|---------------------------------------------------------------------------|
A|---8-8-8-8-8-8-8-8-8-8-8-8-8-8-8-8-8-8-8-8-8-8-8-8-8-8-8-8-8-8-8-8---------|
E|---6-6-6-6-6-6-6-6-6-6-6-6-6-6-6-6-6-6-6-6-6-6-6-6-6-6-6-6-6-6-6-6---------|

e|---------------------------------------------------------------------------|
B|---------------------------------------------------------------------------|
G|---------------------------------------------------------------------------|
D|---8-8-8-8-8-8-8-8-8-8-8-8-8-8-8-8-----------------------------------------|
A|---6-6-6-6-6-6-6-6-6-6-6-6-6-6-6-6-8-8-8-8-8-8-8-8-8-8-8-8-8-8-8-8---------|
E|-----------------------------------6-6-6-6-6-6-6-6-6-6-6-6-6-6-6-6---------|

e|---------------------------------------------------------------------------|
B|---------------------------------------------------------------------------|
G|---------------------------------------------------------------------------|
D|--10-10-10-10-10-10-10-10-8-8-8-8-8-8-8-8----------------------------------|
A|---8--8--8--8--8--8--8--8-6-6-6-6-6-6-6-6-8-8-8-8-8-8-8-8-8-8-8-8-8-8-8-8--|
E|------------------------------------------6-6-6-6-6-6-6-6-6-6-6-6-6-6-6-6--|

Verse 5
e|---------------------------------------------------------------------------|
B|---------------------------------------------------------------------------|
G|---------------------------------------------------------------------------|
D|---4-4-6-4-4-4-6-4-4-4-6-4-4-4-6-4-4-4-6-4-4-4-6-4-4-4-6-4-4-4-6-4---------|
A|---2-2-2-2-2-2-2-2-2-2-2-2-2-2-2-2-2-2-2-2-2-2-2-2-2-2-2-2-2-2-2-2---------|
E|---------------------------------------------------------------------------|

e|---------------------------------------------------------------------------|
B|---------------------------------------------------------------------------|
G|---4-4-6-4-4-4-6-4-4-4-6-4-4-4-6-4-----------------------------------------|
D|---2-2-2-2-2-2-2-2-2-2-2-2-2-2-2-2-4-4-6-4-4-4-6-4-4-4-6-4-4-4-6-4---------|
A|-----------------------------------2-2-2-2-2-2-2-2-2-2-2-2-2-2-2-2---------|
E|---------------------------------------------------------------------------|

e|---------------------------------------------------------------------------|
B|---------------------------------------------------------------------------|
G|---6-6-8-6-6-6-8-6-6-6-8-6-6-6-8-6-----------------------------------------|
D|---4-4-4-4-4-4-4-4-4-4-4-4-4-4-4-4-4-4-6-4-4-4-6-4-4-4-6-4-4-4-6-4---------|
A|-----------------------------------2-2-2-2-2-2-2-2-2-2-2-2-2-2-2-2---------|
E|---------------------------------------------------------------------------|

Verse 6
e|---------------------------------------------------------------------------|
B|---------------------------------------------------------------------------|
G|---------------------------------------------------------------------------|
D|---5-5-7-5-5-5-7-5-5-5-7-5-5-5-7-5-5-5-7-5-5-5-7-5-5-5-7-5-5-5-7-5---------|
A|---3-3-3-3-3-3-3-3-3-3-3-3-3-3-3-3-3-3-3-3-3-3-3-3-3-3-3-3-3-3-3-3---------|
E|---------------------------------------------------------------------------|

e|---------------------------------------------------------------------------|
B|---------------------------------------------------------------------------|
G|---5-5-7-5-5-5-7-5-5-5-7-5-5-5-7-5-----------------------------------------|
D|---3-3-3-3-3-3-3-3-3-3-3-3-3-3-3-3-5-5-7-5-5-5-7-5-5-5-7-5-5-5-7-5---------|
A|-----------------------------------3-3-3-3-3-3-3-3-3-3-3-3-3-3-3-3---------|
E|---------------------------------------------------------------------------|

e|---------------------------------------------------------------------------|
B|---------------------------------------------------------------------------|
G|---7-7-9-7-7-7-9-7-7-7-9-7-7-7-9-7-----------------------------------------|
D|---5-5-5-5-5-5-5-5-5-5-5-5-5-5-5-5-5-5-7-5-5-5-7-5-5-5-5-5-----------------|
A|-----------------------------------3-3-3-3-3-3-3-3-3-3-3-3-----------------|
E|---------------------------------------------------------------------------|
            
Tabs too difficult? Try these video lessons and learn fast.




comments powered by Disqus
↑ Back to top | Tablatures and chords are parodies/interpretations of the original songs. You may use it for private study, scholarship, research or language learning purposes only