>
 >
House Party

House Party Guitar Tabs

Hurriganes - House Party chords, tabs, tablatures, lyrics

Guitar lessons | Add/correct | Request | Top 50 tabs Artists:  A B C D E F G H I J K L M N O P Q R S T U V W X Y Z 0-9

House Party Guitar Tabs – Hurriganes

CD, Sheet music, Poster

Do you like House Party? Share with your friends now
Tabs
-------------------------------------------------------------------------------
Hurriganes- House Party
-------------------------------------------------------------------------------

Intro
e|---------------------------------------------------------------------------|
B|--/15--12--------14-12-----/15--15--------14-12----------------------------|
G|--/16--12--------14-12-----/16--16--------14-12----------------------------|
D|-----------14-14-------14-----------14-14-------14-------------------------|
A|---------------------------------------------------------------------------|
E|---------------------------------------------------------------------------|

e|---------------------------------------------------------------------------|
B|--/15--12--------14-12-----/15--15-----------------------------------------|
G|--/16--12--------14-12-----/16--16-----------------------------------------|
D|-----------14-14-------14-------------14-----------------------------------|
A|--------------------------------------12--12-12-12-12----------------------|
E|------------------------------------------10-10-10-10----------------------|

e|---------------------------------------------------------------------------|
B|---------------------------------------------------------------------------|
G|--9-------------------9--9---9--9------------------------------------------|
D|--9----5---5---7--7---9--9---9--9---5--5--7--7---9-------------------------|
A|--7----5---5---7--7---7--7---7--7---5--5--7--7---7-------------------------|
E|-------3---3---5--5-----------------3--3--5--5------8--8--8--8-------------|

Verse
e|---------------------------------------------------------------------------|
B|---------------------------------------------------------------------------|
G|---------------------------------------------------------------------------|8x
D|---9-9-9-9---7-7-7-7-------------------------------------------------------|
A|---7-7-7-7---5-5-5-5---7-7-7-7--2-2-2-2------------------------------------|
E|-----------------------5-5-5-5--0-0-0-0------------------------------------|

Chorus
e|---------------------------------------------------------------------------|
B|---------------------------------------------------------------------------|
G|---------------------------------------------------------------------------|
D|--9-9-9-9-9-9-9-9-9-9-9-9-9-9-9-9--12-12-12-12-12-12-12-12-12-12-12-12-----|
A|--7-7-7-7-7-7-7-7-7-7-7-7-7-7-7-7--10-10-10-10-10-10-10-10-10-10-10-10-----|
E|---------------------------------------------------------------------------|

e|---------------------------------------------------------------------------|
B|---------------------------------------------------------------------------|
G|---------------------------------------------------------------------------|
D|--12-12-12-12-14-14-14-14-14-14-14-14-14-14-14-14-14-14-14-14--------------|
A|--10-10-10-10-12-12-12-12-12-12-12-12-12-12-12-12-12-12-12-12--------------|
E|---------------------------------------------------------------------------|

e|---------------------------------------------------------------------------|
B|------8---8----------------------------------------------------------------|
G|------7---7--9-------------------------------------------------------------|
D|------6---6--9-------------------------------------------------------------|
A|---7--7---7--7-------------------------------------------------------------|
E|----------------8-8-8-8----------------------------------------------------|

Verse
e|---------------------------------------------------------------------------|
B|---------------------------------------------------------------------------|
G|---------------------------------------------------------------------------|8x
D|---9-9-9-9---7-7-7-7-------------------------------------------------------|
A|---7-7-7-7---5-5-5-5---7-7-7-7--2-2-2-2------------------------------------|
E|-----------------------5-5-5-5--0-0-0-0------------------------------------|

Chorus
e|---------------------------------------------------------------------------|
B|---------------------------------------------------------------------------|
G|---------------------------------------------------------------------------|
D|--9-9-9-9-9-9-9-9-9-9-9-9-9-9-9-9--12-12-12-12-12-12-12-12-12-12-12-12-----|
A|--7-7-7-7-7-7-7-7-7-7-7-7-7-7-7-7--10-10-10-10-10-10-10-10-10-10-10-10-----|
E|---------------------------------------------------------------------------|

e|---------------------------------------------------------------------------|
B|---------------------------------------------------------------------------|
G|---------------------------------------------------------------------------|
D|--12-12-12-12-14-14-14-14-14-14-14-14-14-14-14-14-14-14-14-14--------------|
A|--10-10-10-10-12-12-12-12-12-12-12-12-12-12-12-12-12-12-12-12--------------|
E|---------------------------------------------------------------------------|

e|---------------------------------------------------------------------------|
B|------8---8----------------------------------------------------------------|
G|------7---7--9-------------------------------------------------------------|
D|------6---6--9-------------------------------------------------------------|
A|---7--7---7--7-------------------------------------------------------------|
E|----------------8-8-8-8----------------------------------------------------|

Solo
e|---------------------------------------------------------------------------|
B|--------15-----------------------------------------------------------------|
G|--14b16^^^^r14-12-14-12----------12----14-12----12b14r12----------12-12...-|
D|------------------------14-12-14----14-------14----------14-12-14----------|
A|---------------------------------------------------------------------------|
E|---------------------------------------------------------------------------|

e|----12-------12-------12-------12------------------------------------------|
B|-------12-15----12-15----15b17----15p12------------------------------------|
G|---------------------------------------14-12-----------12------------------|
D|---------------------------------------------14-12-14----------------------|
A|---------------------------------------------------------------------------|
E|---------------------------------------------------------------------------|

e|---------------------------------------------------------------------------|
B|------------------------------------------------------15-------------------|
G|-------9-11b13r11-9----9-9----9-9------------12-14b16^^^^r14-12-14-12------|
D|--9-11--------------11-----11-----11\--12-14-------------------------------|
A|---------------------------------------------------------------------------|
E|---------------------------------------------------------------------------|

e|---------------------------------------------------------------------------|
B|---------------------------------------------------------------------------|
G|-----------------7---------------------------------------------------------|
D|--14-12-14---7h9----5-----------5---7p5---5--------------------------------|
A|-----------------------7----5h7---7-----7---7p5---5-7----------------------|
E|-------------------------7----------------------7--------------------------|

Verse
e|---------------------------------------------------------------------------|
B|---------------------------------------------------------------------------|
G|---------------------------------------------------------------------------|4x
D|---9-9-9-9---7-7-7-7-------------------------------------------------------|
A|---7-7-7-7---5-5-5-5---7-7-7-7--2-2-2-2------------------------------------|
E|-----------------------5-5-5-5--0-0-0-0------------------------------------|

Chorus
e|---------------------------------------------------------------------------|
B|---------------------------------------------------------------------------|
G|---------------------------------------------------------------------------|
D|--9-9-9-9-9-9-9-9-9-9-9-9-9-9-9-9--12-12-12-12-12-12-12-12-12-12-12-12-----|
A|--7-7-7-7-7-7-7-7-7-7-7-7-7-7-7-7--10-10-10-10-10-10-10-10-10-10-10-10-----|
E|---------------------------------------------------------------------------|

e|---------------------------------------------------------------------------|
B|---------------------------------------------------------------------------|
G|---------------------------------------------------------------------------|
D|--12-12-12-12-14-14-14-14-14-14-14-14-14-14-14-14-14-14-14-14--------------|
A|--10-10-10-10-12-12-12-12-12-12-12-12-12-12-12-12-12-12-12-12--------------|
E|---------------------------------------------------------------------------|

e|---------------------------------------------------------------------------|
B|---------------------------------------------------------------------------|
G|---------------------------------------------------------------------------|
D|--9-9-9-9-9-9-9-9-9-9-9-9-9-9-9-9------------------------------------------|
A|--7-7-7-7-7-7-7-7-7-7-7-7-7-7-7-7------------------------------------------|
E|---------------------------------------------------------------------------|

e|---------------------------------------------------------------------------|
B|---------------------------------------------------------------------------|
G|---------------------------------------------------------------------------|
D|--9-9-9-9-9-9-9-9-9-9-9-9-9-9-9-9--12-12-12-12-12-12-12-12-12-12-12-12-----|
A|--7-7-7-7-7-7-7-7-7-7-7-7-7-7-7-7--10-10-10-10-10-10-10-10-10-10-10-10-----|
E|---------------------------------------------------------------------------|

e|---------------------------------------------------------------------------|
B|------8---8----------------------------------------------------------------|
G|------7---7--9--------------9----------------------------------------------|
D|------6---6--9--------------9----------------------------------------------|
A|---7--7---7--7-10-10-10-10--7----------------------------------------------|
E|----------------8--8--8--8-------------------------------------------------|





Comments


Popular Hurriganes tabs & chords
11th Street Boogie Tabs
An Awful Crime Tabs
Bop-she-bop Tabs
Brand New Sucker Tabs
Hey Groupie Tabs
I Will Stay 3 Tabs
Super Oil And Asd Tabs
Trippers Story Tabs
I Will Stay Ukulele
I Will Stay Intro Ukulele


Song lyrics



↑ Back to top | Tablatures and chords are parodies/interpretations of the original songs. You may use it for private study, scholarship, research or language learning purposes only
© 2014 AZChords.com Contact us | Privacy policy | DMCA | Add/correct tabs | Request tabs | Top 50 tabs