» » »

Hot City Tabs (ver.1)

Artists:  A B C D E F G H I J K L M N O P Q R S T U V W X Y Z # 

Hot City Tabs (ver.1)

Hurriganes
Rating:
4/5 (1 vote)

Hard to play? Try these video lessons and learn fast.
                -------------------------------------------------------------------------------
Hurriganes-Hot city
-------------------------------------------------------------------------------

Intro
e|---------------------------------------------------------------------------|
B|---------------------------------------------------------------------------|
G|---------------------------------------------------------------------------|
D|--7-7-5-7-5-7-5-5-3-5-3-5--------------------------------------------------|
A|--5-5-3-5-3-5-3-3-1-3-1-3--5-5-5-5-5-5-5-5-5-5-5-5-5-5-5-5-5-5-------------|
E|---------------------------------------------------------------------------|

Verse
e|---------------------------------------------------------------------------|
B|---------------------------------------------------------------------------|
G|------------------------------------------------------------5--------------|
D|--7-7-9-7-7-7-9-7-7-7-9-7-7-7-9-7---------------------------5--------------|
A|--5-5-5-5-5-5-5-5-5-5-5-5-5-5-5-5-7-7-9-7-7-7-9-7-5-5-7-5-5-3--------------|
E|----------------------------------5-5-5-5-5-5-5-5-3-3-3-3-3----------------|

Chorus
e|---------------------------------------------------------------------------|
B|---------------------------------------------------------------------------|
G|---------------------------------------------------------------------------|
D|----------------------------------7-7-9-7-7-7-9-7-7-7-9-7-7-7-9-7----------|
A|--5-5-7-5-5-5-7-5-5-5-7-5-5-5-7-5-5-5-5-5-5-5-5-5-5-5-5-5-5-5-5-5----------|
E|--3-3-3-3-3-3-3-3-3-3-3-3-3-3-3-3------------------------------------------|
 |                                                                           |
e|---------------------------------------------------------------------------|
B|---------------------------------------------------------------------------|
G|---------------12b14-12--10-12-10------------------12b14-12-10-12-10-------|
D|----------------------------------12---------------------------------12----|
A|---------------------------------------------------------------------------|
E|---------------------------------------------------------------------------|

e|---------------------------------------------------------------------------|
B|---------------------------------------------------------------------------|
G|--9------------------------------------------------------------------------|
D|--9--5-----7-7-9-7-7-7-9-7-7-7-9-7-7-7-9-7---------------------------------|
A|--7--5-----5-5-5-5-5-5-5-5-5-5-5-5-5-5-5-5---------------------------------|
E|-----3---------------------------------------------------------------------|

Verse
e|---------------------------------------------------------------------------|
B|---------------------------------------------------------------------------|
G|------------------------------------------------------------5--------------|
D|--7-7-9-7-7-7-9-7-7-7-9-7-7-7-9-7---------------------------5--------------|
A|--5-5-5-5-5-5-5-5-5-5-5-5-5-5-5-5-7-7-9-7-7-7-9-7-5-5-7-5-5-3--------------|
E|----------------------------------5-5-5-5-5-5-5-5-3-3-3-3-3----------------|

Chorus
e|---------------------------------------------------------------------------|
B|---------------------------------------------------------------------------|
G|---------------------------------------------------------------------------|
D|----------------------------------7-7-9-7-7-7-9-7-7-7-9-7-7-7-9-7----------|
A|--5-5-7-5-5-5-7-5-5-5-7-5-5-5-7-5-5-5-5-5-5-5-5-5-5-5-5-5-5-5-5-5----------|
E|--3-3-3-3-3-3-3-3-3-3-3-3-3-3-3-3------------------------------------------|
 |                                                                           |
e|---------------------------------------------------------------------------|
B|---------------------------------------------------------------------------|
G|---------------12b14-12--10-12-10------------------12b14-12-10-12-10-------|
D|----------------------------------12---------------------------------12----|
A|---------------------------------------------------------------------------|
E|---------------------------------------------------------------------------|

e|---------------------------------------------------------------------------|
B|---------------------------------------------------------------------------|
G|--9------------------------------------------------------------------------|
D|--9--5-----7-7-9-7-7-7-9-7-7-7-9-7-7-7-9-7---------------------------------|
A|--7--5-----5-5-5-5-5-5-5-5-5-5-5-5-5-5-5-5---------------------------------|
E|-----3---------------------------------------------------------------------|

Bridge
e|---------------------------------------------------------------------------|
B|---------------------------------------------------------------------------|
G|-----------------------------------7-7-7-7-7-7-7-7-------------------------|
D|--7-7-7-7-7-7-7-7-9-9-9-9-9-9-9-9--5-5-5-5-5-5-5-5-7-7-9-7-7-7-9-7---------|
A|--5-5-5-5-5-5-5-5-7-7-7-7-7-7-7-7------------------5-5-5-5-5-5-5-5---------|
E|---------------------------------------------------------------------------|

e|---------------------------------------------------------------------------|
B|---------------------------------------------------------------------------|
G|-----------------------------------7-7-7-7-7-7-7-7-------------------------|
D|--7-7-7-7-7-7-7-7-9-9-9-9-9-9-9-9--5-5-5-5-5-5-5-5-------------------------|
A|--5-5-5-5-5-5-5-5-7-7-7-7-7-7-7-7--------------------7-7-7-7-7-7-7-7-------|
E|-----------------------------------------------------5-5-5-5-5-5-5-5-------|

Verse
e|---------------------------------------------------------------------------|
B|---------------------------------------------------------------------------|
G|------------------------------------------------------------5--------------|
D|--7-7-9-7-7-7-9-7-7-7-9-7-7-7-9-7---------------------------5--------------|
A|--5-5-5-5-5-5-5-5-5-5-5-5-5-5-5-5-7-7-9-7-7-7-9-7-5-5-7-5-5-3--------------|
E|----------------------------------5-5-5-5-5-5-5-5-3-3-3-3-3----------------|

Chorus
e|---------------------------------------------------------------------------|
B|---------------------------------------------------------------------------|
G|---------------------------------------------------------------------------|
D|----------------------------------7-7-9-7-7-7-9-7-7-7-9-7-7-7-9-7----------|
A|--5-5-7-5-5-5-7-5-5-5-7-5-5-5-7-5-5-5-5-5-5-5-5-5-5-5-5-5-5-5-5-5----------|
E|--3-3-3-3-3-3-3-3-3-3-3-3-3-3-3-3------------------------------------------|
 |                                                                           |
e|---------------------------------------------------------------------------|
B|---------------------------------------------------------------------------|
G|---------------12b14-12--10-12-10------------------12b14-12-10-12-10-------|
D|----------------------------------12---------------------------------12----|
A|---------------------------------------------------------------------------|
E|---------------------------------------------------------------------------|

e|---------------------------------------------------------------------------|
B|---------------------------------------------------------------------------|
G|--9------------------------------------------------------------------------|
D|--9--5-----7-7-9-7-7-7-9-7-7-7-9-7-7-7-9-7---------------------------------|
A|--7--5-----5-5-5-5-5-5-5-5-5-5-5-5-5-5-5-5---------------------------------|
E|-----3---------------------------------------------------------------------|

Solo
e|---------------------------------------------------------------------------|
B|--------10-10-------10-10-------10-------10-10-------10-10-------10--------|
G|--12b14-------12b14-------12b14----12b14-------12b14-------12b14-----------|
D|---------------------------------------------------------------------------|
A|---------------------------------------------------------------------------|
E|---------------------------------------------------------------------------|

e|---------------------------------------------------------------------------|
B|--10-------10-10-------10-10-------10-------10-10--------------------------|
G|-----12b14-------12b14-------12b14----12b14-------12-10--------------------|
D|---------------------------------------------------------------------------|
A|---------------------------------------------------------------------------|
E|---------------------------------------------------------------------------|

e|----------------------------------10-------10-13b14r13-10------------10----|
B|-------------------------------10----13b15----------------13-10------10----|
G|-------10-10----10----10-12b14----------------------------------12b14------|
D|----12-------12----12------------------------------------------------------|
A|---------------------------------------------------------------------------|
E|---------------------------------------------------------------------------|

e|------------------------------------------------------------10----10----10-|
B|---------------------------------------------------------------10----10----|
G|--1210-----------10----10-10----10-10-----10-10-------12b14----------------|
D|-------12-12--12----12-------12-------12--------12-12----------------------|
A|---------------------------------------------------------------------------|
E|---------------------------------------------------------------------------|

e|--------10-----------------------------------------------------------------|
B|--10-10--------------------------------------------------------------------|
G|---------------------------------------------------------------------------|
D|---------------------------------------------------------------------------|
A|---------------------------------------------------------------------------|
E|---------------------------------------------------------------------------|

Bridge
e|---------------------------------------------------------------------------|
B|---------------------------------------------------------------------------|
G|-----------------------------------7-7-7-7-7-7-7-7-------------------------|
D|--7-7-7-7-7-7-7-7-9-9-9-9-9-9-9-9--5-5-5-5-5-5-5-5-7-7-9-7-7-7-9-7---------|
A|--5-5-5-5-5-5-5-5-7-7-7-7-7-7-7-7------------------5-5-5-5-5-5-5-5---------|
E|---------------------------------------------------------------------------|

e|---------------------------------------------------------------------------|
B|---------------------------------------------------------------------------|
G|-----------------------------------7-7-7-7-7-7-7-7-------------------------|
D|--7-7-7-7-7-7-7-7-9-9-9-9-9-9-9-9--5-5-5-5-5-5-5-5-------------------------|
A|--5-5-5-5-5-5-5-5-7-7-7-7-7-7-7-7--------------------7-7-7-7-7-7-7-7-------|
E|-----------------------------------------------------5-5-5-5-5-5-5-5-------|

Verse
e|---------------------------------------------------------------------------|
B|---------------------------------------------------------------------------|
G|------------------------------------------------------------5--------------|
D|--7-7-9-7-7-7-9-7-7-7-9-7-7-7-9-7---------------------------5--------------|
A|--5-5-5-5-5-5-5-5-5-5-5-5-5-5-5-5-7-7-9-7-7-7-9-7-5-5-7-5-5-3--------------|
E|----------------------------------5-5-5-5-5-5-5-5-3-3-3-3-3----------------|

Chorus
e|---------------------------------------------------------------------------|
B|---------------------------------------------------------------------------|
G|---------------------------------------------------------------------------|
D|----------------------------------7-7-9-7-7-7-9-7-7-7-9-7-7-7-9-7----------|
A|--5-5-7-5-5-5-7-5-5-5-7-5-5-5-7-5-5-5-5-5-5-5-5-5-5-5-5-5-5-5-5-5----------|
E|--3-3-3-3-3-3-3-3-3-3-3-3-3-3-3-3------------------------------------------|
 |                                                                           |
e|---------------------------------------------------------------------------|
B|---------------------------------------------------------------------------|
G|---------------12b14-12--10-12-10------------------12b14-12-10-12-10-------|
D|----------------------------------12---------------------------------12----|
A|---------------------------------------------------------------------------|
E|---------------------------------------------------------------------------|

e|---------------------------------------------------------------------------|
B|---------------------------------------------------------------------------|
G|--9------------------------------------------------------------------------|x3 
D|--9--5-----7-7-9-7-7-7-9-7-7-7-9-7-7-7-9-7---------------------------------|
A|--7--5-----5-5-5-5-5-5-5-5-5-5-5-5-5-5-5-5---------------------------------|
E|-----3---------------------------------------------------------------------|
Last chord: D5

Outro solo
e|---------------10------10------10-10-12-10-12b13-12-10---------------------|
B|-------------------------------------------------------13-10---------------|
G|---12b14-12b14-----12b14-12b14-------------------------------12-10---------|
D|--------------------------------------------------------------------12-----|
A|---------------------------------------------------------------------------|
E|---------------------------------------------------------------------------|

e|----------------------------------------15b17-10---------------------------|
B|------10-10-------10-10-------10-10-10------------13-10--13b15-13b15-------|
G|12b14-------12b14-------12b14----------------------------------------------|
D|---------------------------------------------------------------------------|
A|---------------------------------------------------------------------------|
E|---------------------------------------------------------------------------|

e|---------------------------------------------------------------------------|
B|---13-10-------------------------------------------------------------------|
G|---------12-10-------------------------------------------------------------|
D|---------------12-12-12-12-10-12-------------------------------------------|
A|---------------------------------------------------------------------------|
E|---------------------------------------------------------------------------|
            
Hard to play? Try these video lessons and learn fast. | Correct




comments powered by Disqus
↑ Back to top | Tablatures and chords are parodies/interpretations of the original songs. You may use it for private study, scholarship, research or language learning purposes only