» » »

Hold Me Tight Tabs (ver.1)

Artists:  A B C D E F G H I J K L M N O P Q R S T U V W X Y Z # 

Hold Me Tight Tabs (ver.1)

Hurriganes
Rating:
5/5 (1 vote)

Tabs too difficult? Try these video lessons and learn fast.
                -------------------------------------------------------------------------------
Hurriganes-Hold Me Tight
(Lennon-McCartney, arr. Aaltonen-Häkkinen-Kallio)
-------------------------------------------------------------------------------

Intro
e|---------------------------------------------------------------------------|
B|---------------------------------------------------------------------------|
G|---------------------------------------------------------------------------|
D|--5-5-5-5-5-5-5-5--5--5--5--5----------------------------------------------|
A|--5-5-5-5-5-5-5-5--5--5--5--5----------------------------------------------|
E|--3-3-3-3-3-3-3-3--3--3--3--3----------------------------------------------|

Verse
e|---------------------------------------------------------------------------|
B|---------------------------------------------------------------------------|
G|---------------------------------------------------------------------------|
D|--5-5-7-5-5-5-7-5-------------------7-7-9-7-7-7-9-7------------------------|
A|--3-3-3-3-3-3-3-3----------3-3-5-3--5-5-5-5-5-5-5-5--5-5-5-5-5-5-5-5-------|
E|-------------------1-1-4-5---------------------------3-3-3-3-3-3-3-3-------|

e|---------------------------------------------------------------------------|
B|---------------------------------------------------------------------------|
G|---------------------------------------------------------------------------|
D|--5-5-7-5-5-5-7-5-------------------7-7-9-7-7-7-9-7------------------------|
A|--3-3-3-3-3-3-3-3----------3-3-5-3--5-5-5-5-5-5-5-5--5-5-5-5-5-5-5-5-------|
E|-------------------1-1-4-5---------------------------3-3-3-3-3-3-3-3-------|

Chorus
e|---------------------------------------------------------------------------|
B|---------------------------------------------------------------------------|
G|---5---5---5---5-----------------------------------------------------------|
D|---5---5---5---5---3---3---3---3-------------------------------------------|
A|---3---3---3---3---3---3---3---3-------------------------------------------|
E|-------------------1---1---1---1-------------------------------------------|

e|---------------------------------------------------------------------------|
B|---------------------------------------------------------------------------|
G|---------------------------------------------------------------------------|
D|--5-5-7-5-5-5-7-5-------------------5-5-7-5-5-5-7-5------------------------|
A|--3-3-3-3-3-3-3-3----------3-3-5-3--3-3-3-3-3-3-3-3--5-5-5-5-5-5-5-5-------|
E|-------------------1-1-4-5---------------------------3-3-3-3-3-3-3-3-------|

Verse
e|---------------------------------------------------------------------------|
B|---------------------------------------------------------------------------|
G|---------------------------------------------------------------------------|
D|--5-5-7-5-5-5-7-5-------------------7-7-9-7-7-7-9-7------------------------|
A|--3-3-3-3-3-3-3-3----------3-3-5-3--5-5-5-5-5-5-5-5--5-5-5-5-5-5-5-5-------|
E|-------------------1-1-4-5---------------------------3-3-3-3-3-3-3-3-------|

e|---------------------------------------------------------------------------|
B|---------------------------------------------------------------------------|
G|---------------------------------------------------------------------------|
D|--5-5-7-5-5-5-7-5-------------------7-7-9-7-7-7-9-7------------------------|
A|--3-3-3-3-3-3-3-3----------3-3-5-3--5-5-5-5-5-5-5-5--5-5-5-5-5-5-5-5-------|
E|-------------------1-1-4-5---------------------------3-3-3-3-3-3-3-3-------|

Chorus
e|---------------------------------------------------------------------------|
B|---------------------------------------------------------------------------|
G|---5---5---5---5-----------------------------------------------------------|
D|---5---5---5---5---3---3---3---3-------------------------------------------|
A|---3---3---3---3---3---3---3---3-------------------------------------------|
E|-------------------1---1---1---1-------------------------------------------|

e|---------------------------------------------------------------------------|
B|---------------------------------------------------------------------------|
G|---------------------------------------------------------------------------|
D|--5-5-7-5-5-5-7-5-------------------5-5-7-5-5-5-7-5---8---8---8------------|
A|--3-3-3-3-3-3-3-3----------3-3-5-3--3-3-3-3-3-3-3-3---6---6---6------------|
E|-------------------1-1-4-5-------------------------------------------------|

Bridge
e|---------------------------------------------------------------------------|
B|---------------------------------------------------------------------------|
G|---------------------------------------------------------------------------|
D|--5--5--5--8--8--8--5--5--5-----------7--7--7--7--7--7---------------------|
A|--3--3--3--6--6--6--3--3--3--3--3--3--5--5--5--5--5--5--5-5-5-5-5-5-5-5----|
E|-----------------------------1--1--1--------------------3-3-3-3-3-3-3-3----|

Verse
e|---------------------------------------------------------------------------|
B|---------------------------------------------------------------------------|
G|---------------------------------------------------------------------------|
D|--5-5-7-5-5-5-7-5-------------------7-7-9-7-7-7-9-7------------------------|
A|--3-3-3-3-3-3-3-3----------3-3-5-3--5-5-5-5-5-5-5-5--5-5-5-5-5-5-5-5-------|
E|-------------------1-1-4-5---------------------------3-3-3-3-3-3-3-3-------|

e|---------------------------------------------------------------------------|
B|---------------------------------------------------------------------------|
G|---------------------------------------------------------------------------|
D|--5-5-7-5-5-5-7-5-------------------7-7-9-7-7-7-9-7------------------------|
A|--3-3-3-3-3-3-3-3----------3-3-5-3--5-5-5-5-5-5-5-5--5-5-5-5-5-5-5-5-------|
E|-------------------1-1-4-5---------------------------3-3-3-3-3-3-3-3-------|

Chorus
e|---------------------------------------------------------------------------|
B|---------------------------------------------------------------------------|
G|---5---5---5---5-----------------------------------------------------------|
D|---5---5---5---5---3---3---3---3-------------------------------------------|
A|---3---3---3---3---3---3---3---3-------------------------------------------|
E|-------------------1---1---1---1-------------------------------------------|

e|---------------------------------------------------------------------------|
B|---------------------------------------------------------------------------|
G|---------------------------------------------------------------------------|
D|--5-5-7-5-5-5-7-5-------------------5-5-7-5-5-5-7-5---8---8---8------------|
A|--3-3-3-3-3-3-3-3--3-3-5-3-3-3-5-3--3-3-3-3-3-3-3-3---6---6---6------------|
E|-------------------1-1-1-1-1-1-1-1-----------------------------------------|

Bridge
e|---------------------------------------------------------------------------|
B|---------------------------------------------------------------------------|
G|---------------------------------------------------------------------------|
D|--5--5--5--8--8--8--5--5--5-----------7--7--7--7--7--7---------------------|
A|--3--3--3--6--6--6--3--3--3--3--3--3--5--5--5--5--5--5--5-5-5-5-5-5-5-5----|
E|-----------------------------1--1--1--------------------3-3-3-3-3-3-3-3----|

Verse
e|---------------------------------------------------------------------------|
B|---------------------------------------------------------------------------|
G|---------------------------------------------------------------------------|
D|--5-5-7-5-5-5-7-5-------------------7-7-9-7-7-7-9-7------------------------|
A|--3-3-3-3-3-3-3-3----------3-3-5-3--5-5-5-5-5-5-5-5--5-5-5-5-5-5-5-5-------|
E|-------------------1-1-4-5---------------------------3-3-3-3-3-3-3-3-------|

e|---------------------------------------------------------------------------|
B|---------------------------------------------------------------------------|
G|---------------------------------------------------------------------------|
D|--5-5-7-5-5-5-7-5-------------------7-7-9-7-7-7-9-7------------------------|
A|--3-3-3-3-3-3-3-3----------3-3-5-3--5-5-5-5-5-5-5-5--5-5-5-5-5-5-5-5-------|
E|-------------------1-1-4-5---------------------------3-3-3-3-3-3-3-3-------|

Chorus
e|---------------------------------------------------------------------------|
B|---------------------------------------------------------------------------|
G|---5---5---5---5-----------------------------------------------------------|
D|---5---5---5---5---3---3---3---3-------------------------------------------|
A|---3---3---3---3---3---3---3---3-------------------------------------------|
E|-------------------1---1---1---1-------------------------------------------|

e|---------------------------------------------------------------------------|
B|---------------------------------------------------------------------------|
G|---------------------------------------------------------------------------|
D|--5-5-7-5-5-5-7-5-------------------5-5-7-5-5-5-7-5------------------------|
A|--3-3-3-3-3-3-3-3--3-3-5-3-3-3-5-3--3-3-3-3-3-3-3-3--5-5-5-5-5-5-5-5-------|
E|-------------------1-1-1-1-1-1-1-1-------------------3-3-3-3-3-3-3-3-------|

Verse
e|---------------------------------------------------------------------------|
B|---------------------------------------------------------------------------|
G|---------------------------------------------------------------------------|
D|--5-5-7-5-5-5-7-5-------------------7-7-9-7-7-7-9-7------------------------|
A|--3-3-3-3-3-3-3-3----------3-3-5-3--5-5-5-5-5-5-5-5--5-5-5-5-5-5-5-5-------|
E|-------------------1-1-4-5---------------------------3-3-3-3-3-3-3-3-------|

e|---------------------------------------------------------------------------|
B|---------------------------------------------------------------------------|
G|---------------------------------------------------------------------------|
D|--5-5-7-5-5-5-7-5-------------------7-7-9-7-7-7-9-7------------------------|
A|--3-3-3-3-3-3-3-3----------3-3-5-3--5-5-5-5-5-5-5-5--5-5-5-5-5-5-5-5-------|
E|-------------------1-1-4-5---------------------------3-3-3-3-3-3-3-3-------|

Chorus
e|---------------------------------------------------------------------------|
B|---------------------------------------------------------------------------|
G|---5---5---5---5-----------------------------------------------------------|
D|---5---5---5---5---3---3---3---3-------------------------------------------|
A|---3---3---3---3---3---3---3---3-------------------------------------------|
E|-------------------1---1---1---1-------------------------------------------|

e|---------------------------------------------------------------------------|
B|-------------------------------------------------------------------5-------|
G|-------------------------------------------------------------------5-------|
D|--5-5-7-5-5-5-7-5-------------------5-5-7-5-5-5-7-5---8---8---8----5-------|
A|--3-3-3-3-3-3-3-3----------3-3-5-3--3-3-3-3-3-3-3-3---6---6---6----3-------|
E|-------------------1-1-4-5-------------------------------------------------|
            
Tabs too difficult? Try these video lessons and learn fast.




comments powered by Disqus
↑ Back to top | Tablatures and chords are parodies/interpretations of the original songs. You may use it for private study, scholarship, research or language learning purposes only