>
 >
Hey Groupie

Hey Groupie Guitar Tabs

Hurriganes - Hey Groupie chords, tabs, tablatures, lyrics

Guitar lessons | Add/correct | Request | Top 50 tabs Artists:  A B C D E F G H I J K L M N O P Q R S T U V W X Y Z 0-9

Hey Groupie Guitar Tabs – Hurriganes

CD, Sheet music, Poster

Do you like Hey Groupie? Share with your friends now
ChordsTabsUkulele
-------------------------------------------------------------------------------
Hurriganes-Hey groupie
-------------------------------------------------------------------------------

Intro

e|---------------------------------------------------------------------------|
B|---------------------------------------------------------------------------|
G|-5-5-5---------5-5-5-------------------------------------------------------|
D|-5-5-5--7-7-7--5-5-5--7-7-7--3-3-3--5-5-5--3-3-3--5-5-5-5-5-5-5------------|
A|-3-3-3--7-7-7--3-3-3--7-7-7--3-3-3--5-5-5--3-3-3--5-5-5-5-5-5-5------------|
E|--------5-5-5---------5-5-5--1-1-1--3-3-3--1-1-1--3-3-3-3-3-3-3------------|

Verse 1

e|------------------------------------------------------------------------------------------|
B|------------------------------------------------------------------------------------------|
G|-5-5-5---------5-5-5---------------------------------5-5-5--------5-5-5-------------------|
D|-5-5-5--7-7-7--5-5-5--7-7-7--3-3-3--5-5-5--3-3-3--5--5-5-5-7-7-7--5-5-5--5-5-5-5-5-5-5-5--|
A|-3-3-3--7-7-7--3-3-3--7-7-7--3-3-3--5-5-5--3-3-3--5--3-3-3-7-7-7--3-3-3--5-5-5-5-5-5-5-5--|
E|--------5-5-5---------5-5-5--1-1-1--3-3-3--1-1-1--3--------5-5-5---------3-3-3-3-3-3-3-3--|

Verse 2
e|------------------------------------------------------------------------------------------|
B|------------------------------------------------------------------------------------------|
G|-5-5-5---------5-5-5---------------------------------5-5-5--------5-5-5-------------------|
D|-5-5-5--7-7-7--5-5-5--7-7-7--3-3-3--5-5-5--3-3-3--5--5-5-5-7-7-7--5-5-5--5-5-5-5-5-5-4-3--|
A|-3-3-3--7-7-7--3-3-3--7-7-7--3-3-3--5-5-5--3-3-3--5--3-3-3-7-7-7--3-3-3--5-5-5-5-5-5-4-3--|
E|--------5-5-5---------5-5-5--1-1-1--3-3-3--1-1-1--3--------5-5-5---------3-3-3-3-3-3-2-1--|

Bridge
e|---------------------------------------------------------------------------|
B|---------------------------------------------------------------------------|
G|----------------5-5-5--5-5-5-----------------------------------------------|
D|--3-3-3--3-3-3--5-5-5--5-5-5--3-3-3--3-3-3--5------------------------------|
A|--3-3-3--3-3-3--3-3-3--3-3-3--3-3-3--3-3-3--5------------------------------|
E|--1-1-1--1-1-1----------------1-1-1--1-1-1--3------------------------------|

Verse 
e|---------------------------------------------------------------------------|
B|---------------------------------------------------------------------------|
G|-5-5-5---------5-5-5---------------------------------5-5-5--------5-5-5----|
D|-5-5-5--7-7-7--5-5-5--7-7-7--3-3-3--5-5-5--3-3-3--5--5-5-5-7-7-7--5-5-5----|
A|-3-3-3--7-7-7--3-3-3--7-7-7--3-3-3--5-5-5--3-3-3--5--3-3-3-7-7-7--3-3-3----|
E|--------5-5-5---------5-5-5--1-1-1--3-3-3--1-1-1--3--------5-5-5-----------|

Solo
e|---------------------------------------------------------------------------|
B|--------------------8------------------------------------------------------|
G|--------------5-7b9---9r7-5-7-5-7b8r7-5-------5-7-5-7-5-7b8-7-5------5-----|
D|--5-5-5-5-5-7---------------------------7-5-7--------------------5/7---7---|
A|---------------------------------------------------------------------------|
E|---------------------------------------------------------------------------|

e|---------------------------------------------------------------------------|
B|----------------------------------------------8----------------------------|
G|--5---5-7b9-7-5-7-----5---5---5-5-7b9r7-5-7b9---9r7-5---5-7b9-7-5-------5--|
D|----7-------------5h7---7---7-------------------------7-----------7-5h7----|
A|---------------------------------------------------------------------------|
E|---------------------------------------------------------------------------|

e|-------------------------------------8----8-------------------------8------|
B|------------------------------8-8-10---10---10-8h10p8---8-10-8-8h10---10---|
G|----5-5---5-------------5-7b9-------------------------9--------------------|
D|--7-----7---5-5-5-5-5-7----------------------------------------------------|
A|---------------------------------------------------------------------------|
E|---------------------------------------------------------------------------|

e|-------8-10/12\10-8-/12-12\10\8-10-10------8----8--------------------------|
B|--8h10--------------------------------8h10---10---10--10-----8-10---8-10---|
G|------------------------------------------------------10-7h9------9--------|
D|---------------------------------------------------------------------------|
A|---------------------------------------------------------------------------|
E|---------------------------------------------------------------------------|

e|---------------------------------------------------------------------------|
B|---------------------------------------------------------------------------|
G|--9-7h9p7-5---5---5--------------------------------------------------------|
D|------------7---7----5-5-5-5-5-5-4-3---------------------------------------|
A|---------------------------------------------------------------------------|
E|---------------------------------------------------------------------------|

Bridge
e|---------------------------------------------------------------------------|
B|---------------------------------------------------------------------------|
G|----------------5-5-5--5-5-5-----------------------------------------------|
D|--3-3-3--3-3-3--5-5-5--5-5-5--3-3-3--3-3-3--5------------------------------|
A|--3-3-3--3-3-3--3-3-3--3-3-3--3-3-3--3-3-3--5------------------------------|
E|--1-1-1--1-1-1----------------1-1-1--1-1-1--3------------------------------|

 Verse 
e|------------------------------------------------------------------------------------|
B|------------------------------------------------------------------------------------|
G|-5-5-5---------5-5-5---------------------------------5-5-5--------5-5-5--5-----5----|
D|-5-5-5--7-7-7--5-5-5--7-7-7--3-3-3--5-5-5--3-3-3--5--5-5-5-7-7-7--5-5-5--5--5--5----|
A|-3-3-3--7-7-7--3-3-3--7-7-7--3-3-3--5-5-5--3-3-3--5--3-3-3-7-7-7--3-3-3--3--5--3----|
E|--------5-5-5---------5-5-5--1-1-1--3-3-3--1-1-1--3--------5-5-5------------3-------|





Comments


Popular Hurriganes tabs & chords
An Awful Crime Tabs
Bop-she-bop Tabs
Crazy Days Tabs
Desiree Tabs
Down The Line Tabs
Get Along Tabs
Love Potion No 9 Tabs
Say Mama Tabs
I Will Stay Intro Ukulele
Mister X Ukulele


Song lyrics



↑ Back to top | Tablatures and chords are parodies/interpretations of the original songs. You may use it for private study, scholarship, research or language learning purposes only
© 2014 AZChords.com Contact us | Privacy policy | DMCA | Add/correct tabs | Request tabs | Top 50 tabs