>
 >
Hear Me Calling

Hear Me Calling Guitar Tabs

Hurriganes - Hear Me Calling chords, tabs, tablatures, lyrics

Guitar lessons | Add/correct | Request | Top 50 tabs Artists:  A B C D E F G H I J K L M N O P Q R S T U V W X Y Z 0-9

Hear Me Calling Guitar Tabs – Hurriganes

CD, Sheet music, Poster

Do you like Hear Me Calling? Share with your friends now
Tabs
Hurriganes - Hear me calling
tuning: standart

Intro 
  H      H     H     H     H     H     H     H
|-----------|-----------|-----------|-----------|
|--5-----3--|--5-----3--|--5-----3--|--5-----3--|
|--5-----3--|--5-----3--|--5-----3--|--5-----3--|
|--5-----3--|--5-----3--|--5-----3--|--5-----3--|
|--3--------|--3--------|--3--------|--3--------|
|-----------|-----------|-----------|-----------|

  H      H     H     H     H     H     H     H
|-----------|-----------|-----------|-----------|
|--5--\--3-/|--5--\--3-/|--5--\--3-/|--5--\--3--|
|--5--\--3-/|--5--\--3-/|--5--\--3-/|--5--\--3--|
|--5--\--3-/|--5--\--3-/|--5--\--3-/|--5--\--3--|
|--3--\--1-/|--3--\--1-/|--3--\--1-/|--3--\--1--|
|-----------|-----------|-----------|-----------|

  E E E E E E E E E E E E E E E E
|----------------------------------|
|-5-5-5-5-5-5-5-5-3-3-3-3-3-3-3-3--|
|-5-5-5-5-5-5-5-5-3-3-3-3-3-3-3-3--|
|-5-5-5-5-5-5-5-5-3-3-3-3-3-3-3-3--|x4
|-3-3-3-3-3-3-3-3-1-1-1-1-1-1-1-1--|
|----------------------------------|
  S E E E E S  E   E E
|-------------------------|
|-------------------------|
|-------------------------|
|-1-3-3-3-3p1-------------|x8
|--------------3---1------|
|---------------------3---|  

Verse
 E  E  Q  E  E   Q   E  E   Q  E  E  Q 
|-------------------|------------------------|
|-------------------|------------------------|
|-------------------|------------------------|
|-3--3--5--3--3--5--|-3--3--5--3--3--5-------|
|-1--1--1--1--1--1--|-1--1--1--1--1--1-------|
|------------------ |------------------------|

  S E E E E S  E   E E
|-------------------------|
|-------------------------|
|-------------------------|
|-1-3-3-3-3p1-------------|x4
|--------------3---1------|
|---------------------3---|
 E  E  Q  E  E   Q   E  E   Q  E  E  Q 
|-------------------|------------------------|
|-------------------|------------------------|
|-------------------|------------------------|
|-3--3--5--3--3--5--|-3--3--5--3--3--5-------|
|-1--1--1--1--1--1--|-1--1--1--1--1--1-------|
|------------------ |------------------------|


  S E E E E S  E   E E
|-------------------------|
|-------------------------|
|-------------------------|
|-1-3-3-3-3p1-------------|x4
|--------------3---1------|
|---------------------3---|
 E  E  Q  E  E   Q   E  E   Q  E  E  Q 
|-------------------|------------------------|
|-------------------|------------------------|
|-------------------|------------------------|
|-5--5--7--5--5--7--|-5--5--7--5--5--7-------|
|-3--3--3--3--3--3--|-3--3--3--3--3--3-------|
|------------------ |------------------------|


  S E E E E S  E   E E
|-------------------------|
|-------------------------|
|-------------------------|
|-1-3-3-3-3p1-------------|x8
|--------------3---1------|
|---------------------3---|

 E  E  Q  E  E   Q   E  E   Q  E  E  Q 
|-------------------|------------------------|
|-------------------|------------------------|
|-------------------|------------------------|
|-3--3--5--3--3--5--|-3--3--5--3--3--5-------|
|-1--1--1--1--1--1--|-1--1--1--1--1--1-------|
|------------------ |------------------------|

 Q E E E EQ E E E E
|-------------------------|
|------------4p3p1--------|
|-1-3-3-3p1---------------|
|-----------3-------------|
|-------------------------|
|-------------------------|

 E  E  Q  E  E   Q   E  E   Q  E  E  Q 
|-------------------|------------------------|
|-------------------|------------------------|
|-------------------|------------------------|
|-3--3--5--3--3--5--|-3--3--5--3--3--5-------|
|-1--1--1--1--1--1--|-1--1--1--1--1--1-------|
|------------------ |------------------------|

 Q E E E EQ E E E E
|-------------------------|
|------------4p3p1--------|
|-1-3-3-3p1---------------|
|-----------3-------------|
|-------------------------|
|-------------------------|

 E  E  Q  E  E   Q   E  E   Q  E  E  Q 
|-------------------|------------------------|
|-------------------|------------------------|
|-------------------|------------------------|
|-5--5--7--5--5--7--|-5--5--7--5--5--7-------|
|-3--3--3--3--3--3--|-3--3--3--3--3--3-------|
|------------------ |------------------------|
  E E E E  Q   Q     E E E  E E E  E  E
|-------------------|------------------------|
|-------------------|------------------------|
|--------------1b---|------------------------|
|-3-3-3p1-----------|-3-3-3-3p1--------------|
|----------3--------|-----------3--1---------|
|-------------------|-----------------3------|

  E E E E  Q   Q     E E E  E E E  E  E
|-------------------|------------------------|
|-------------------|------------------------|
|--------------1b---|------------------------|
|-3-3-3p1-----------|-3-3-3-3p1--------------|
|----------3--------|-----------3--1---------|
|-------------------|-----------------3------|

Solo
    W     H Q E E    W     Q Q H   E  Q  E  Q Q
|------|-----------|-----|-------|--------------|
|--3br-|-----------|-3br-|-3/1---|--------------|
|--3br-|--3--------|-3br-|-3/1---|--------------|
|------|--3---3-5--|-----|-------|-0--3--0--3---|
|------|-----------|-----|-------|--------------|
|------|-----------|-----|-------|--------------|
  E E E E E E E E   E  E  E E E E E  E  E E E E E  E
|-----------------|-----------------|---------------|
|-----------------|-----------------|---------------|
|-----------------|-----------------|---------------|
|-0-3-3-3-3-3-0-3-|-0--3--3-3-3-3-3-|0--3-0-3--0-3--|
|-----------------|-----------------|--------------3|
|-----------------|-----------------|---------------|
  E  Q  E  E  E  E    E E  E   Q  E  Q
|-------------------|-------------------|
|-------------------|-------------------|
|-------------------|-5p3---------------|
|-0--3--0--3--0--3--|------5---3--------|
|-------------------|-------------------|
|-------------------|-------------------|
  E  E   E   Q   E  E  E     E  E   E  E E E E E
|--------------------------|--------------------|
|--------------------------|--------------------|
|--------0-----------------|--------------------|
|-3--3-------7------9--10--|-10-10-10-10-9-9-9-9|
|----------------7---------|--------------------|
|--------------------------|--------------------|
  E E E E E E E E     Q   E E E E  Q
|-------------------|--------------------|
|-------------------|--------------------|
|-------------------|--------------------|
|-7-7-7-7-----------|-7~--7-7-9-10-------|
|---------7-7-7-7---|--------------------|
|-------------------|--------------------|
  E  E  E  E   E  E  E  E    E  E  E  E  E  E  E  E
|--------------------------|-------------------------|
|--------------------------|-------------------------|
|--------------------------|-------------------------|
|-12-12-13-15--13-13-15-17-|-15-15-13-13-------12-12-|
|--------------------------|-------------12-12-------|
|--------------------------|-------------------------|
  E  E   E   E   E  E   E  E   All i can hear albert is sliding
|----------------------------|--------------------|between 12 and 15
|----------------------------|--------------------|on D string and he tremoles
|----------------------------|--------------------|12 sometimes, it's hard to tab
|-15-13------12--15-13-----12|-12/15\12-12tr------|
|--------12-------------12---|--------------------|
|----------------------------|--------------------|
3.16
  H    E E E E        H    E E E E         Q H
|-------------------|--------------------|-------|
|-5----5-5-5-5------|-5----5-5-5-5-------|-5-3---|
|-5----5-5-5-5------|-5----5-5-5-5-------|-5-3---|
|-5----5-5-5-5------|-5----5-5-5-5-------|-5-3---|
|-3----3-3-3-3------|-3----3-3-3-3-------|-3-1---|
|-------------------|--------------------|-------|

Verse

  S E E E E S  E   E E
|-------------------------|
|-------------------------|
|-------------------------|
|-1-3-3-3-3p1-------------|x4
|--------------3---1------|
|---------------------3---|

 E  E  Q  E  E   Q   E  E   Q  E  E  Q 
|-------------------|------------------------|
|-------------------|------------------------|
|-------------------|------------------------|
|-3--3--5--3--3--5--|-3--3--5--3--3--5-------|
|-1--1--1--1--1--1--|-1--1--1--1--1--1-------|
|------------------ |------------------------|

 Q E E E EQ E E E E
|-------------------------|
|------------4p3p1--------|
|-1-3-3-3p1---------------|
|-----------3-------------|
|-------------------------|
|-------------------------|


 E  E  Q  E  E   Q   E  E   Q  E  E  Q 
|-------------------|------------------------|
|-------------------|------------------------|
|-------------------|------------------------|
|-3--3--5--3--3--5--|-3--3--5--3--3--5-------|
|-1--1--1--1--1--1--|-1--1--1--1--1--1-------|
|------------------ |------------------------|

 Q E E E EQ E E E E
|-------------------------|
|------------4p3p1--------|
|-1-3-3-3p1---------------|
|-----------3-------------|
|-------------------------|
|-------------------------|


 E  E  Q  E  E   Q   E  E   Q  E  E  Q 
|-------------------|------------------------|
|-------------------|------------------------|
|-------------------|------------------------|
|-5--5--7--5--5--7--|-5--5--7--5--5--7-------|
|-3--3--3--3--3--3--|-3--3--3--3--3--3-------|
|------------------ |------------------------|
  S E E E E S E E E   E  E  E  E   Q   Q
|-------------------|------------------------|
|-------------------|------------------------|
|-1-3-3-3-3p1-------|------------------------|
|-------------3-1---|--3--1----1-------------|
|-----------------3-|-------3----------------|
|-------------------|------------------------|
outro                                  
|----------------------------------|------------------------|
|3p1p0-----------------------------|------------------------|
|------3p1p0-------3p10------------|--5p3p0-5p3p0-5p3p0--5b-|
|------------3p1p0------3p1p0------|----^-------------------|
|-----------------------------3p1p0|----|-------------------|
|----------------------------------|----|-------------------|
                                      repeat many times





Comments


Popular Hurriganes tabs & chords
Talking Bout You Bass Tabs
Hey Groupie Tabs
I Will Stay 2 Tabs
Mary Jane Tabs
Roadrunner 2 Tabs
Slippin And Slidin Tabs
Somebody Help Me Tabs
Woo-oo-oo-oo-o Live Tabs
Get On Ukulele
I Will Stay Intro Ukulele


Song lyrics



↑ Back to top | Tablatures and chords are parodies/interpretations of the original songs. You may use it for private study, scholarship, research or language learning purposes only
© 2014 AZChords.com Contact us | Privacy policy | DMCA | Add/correct tabs | Request tabs | Top 50 tabs