» » »

Hurriganes, Goodnight Baby Tabs (ver.1)

Artists:  A B C D E F G H I J K L M N O P Q R S T U V W X Y Z # 

Goodnight Baby Tabs (ver.1)

Hurriganes Tabs
Rating:
5/5 (1 vote)
Goodnight Baby lessons Tabs too difficult? Try these video lessons and learn fast
                -------------------------------------------------------------------------------
Hurriganes- Goodnight Baby
-------------------------------------------------------------------------------

Intro
e|---------------------------------------------------------------------------|
B|---------------------------------------------------------------------------|
G|---------------------------------------------------------------------------|
D|--9-9-9-9---------9-9-9-9---------9-9-9-9---------9-9-9-9------------------|
A|--7-7-7-7-7-7-7-7-7-7-7-7-7-7-7-7-7-7-7-7-7-7-7-7-7-7-7-7-7-7-7-7----------|
E|----------5-5-5-5---------5-5-5-5---------5-5-5-5---------5-5-5-5----------|

Verse
e|---------------------------------------------------------------------------|
B|---------------------------------------------------------------------------|
G|---------------------------------------------------------------------------|
D|--9-9-9-9---------9-9-9-9---------9-9-9-9---------9-9-9-9------------------|
A|--7-7-7-7-7-7-7-7-7-7-7-7-7-7-7-7-7-7-7-7-7-7-7-7-7-7-7-7-7-7-7-7----------|
E|----------5-5-5-5---------5-5-5-5---------5-5-5-5---------5-5-5-5----------|

e|---------------------------------------------------------------------------|
B|-----------------------------7-8-7-----------------------------------------|
G|---------------------------7-----------------------------------------------|
D|----------7-7-7-7----------7-------9-9-9-9---------9-9-9-9-----------------|
A|--7-7-7-7-5-5-5-5-7-7-7-7--5-------7-7-7-7-7-7-7-7-7-7-7-7-7-7-7-7---------|
E|--5-5-5-5---------5-5-5-5------------------5-5-5-5---------5-5-5-5---------|

e|---------------------------------------------------------------------------|
B|---------------------------------------------------------------------------|
G|---------------------------------------------------------------------------|
D|----------------------------------9-9-9-9----------------------------------|
A|--9-9-9-9-9-9-9-9-7-7-7-7-7-7-7-7-7-7-7-7-7-7-7-7---9-9-9-9-9-9-9----------|
E|--7-7-7-7-7-7-7-7-5-5-5-5-5-5-5-5---------5-5-5-5---7-7-7-7-7-7-7----------|

Chorus
e|---------------------------------------------------------------------------|
B|---------------------------------------------------------------------------|
G|---------------------------------------------------------------------------|
D|---9-9-9-9--------------------------9-9-9-9--------------------------------|
A|---7-7-7-7-9-9-9-9-7-7-7-9--9-9-9---7-7-7-7-9-9-9-9-7-7-7-9--9-9-9---------|
E|-----------7-7-7-7-5-5-5-7--7-7-7-----------7-7-7-7-5-5-5-7--7-7-7---------|

e|---------------------------------------------------------------------------|
B|---------------------------------------------------------------------------|
G|---------------------------------------------------------------------------|
D|---9-9-9-9--------------------------9-9-9-9--------------------------------|
A|---7-7-7-7-9-9-9-9-7-7-7-9--9-9-9---7-7-7-7-7-7-7-7--9-9-9-9-9-9-9---------|
E|-----------7-7-7-7-5-5-5-7--7-7-7-----------5-5-5-5--7-7-7-7-7-7-7---------|

Verse
e|---------------------------------------------------------------------------|
B|---------------------------------------------------------------------------|
G|---------------------------------------------------------------------------|
D|--9-9-9-9---------9-9-9-9---------9-9-9-9---------9-9-9-9------------------|
A|--7-7-7-7-7-7-7-7-7-7-7-7-7-7-7-7-7-7-7-7-7-7-7-7-7-7-7-7-7-7-7-7----------|
E|----------5-5-5-5---------5-5-5-5---------5-5-5-5---------5-5-5-5----------|

e|---------------------------------------------------------------------------|
B|-----------------------------7-8-7-----------------------------------------|
G|---------------------------7-----------------------------------------------|
D|----------7-7-7-7----------7-------9-9-9-9---------9-9-9-9-----------------|
A|--7-7-7-7-5-5-5-5-7-7-7-7--5-------7-7-7-7-7-7-7-7-7-7-7-7-7-7-7-7---------|
E|--5-5-5-5---------5-5-5-5------------------5-5-5-5---------5-5-5-5---------|

e|---------------------------------------------------------------------------|
B|---------------------------------------------------------------------------|
G|---------------------------------------------------------------------------|
D|----------------------------------9-9-9-9----------------------------------|
A|--9-9-9-9-9-9-9-9-7-7-7-7-7-7-7-7-7-7-7-7-7-7-7-7---9-9-9-9-9-9-9----------|
E|--7-7-7-7-7-7-7-7-5-5-5-5-5-5-5-5---------5-5-5-5---7-7-7-7-7-7-7----------|

Chorus
e|---------------------------------------------------------------------------|
B|---------------------------------------------------------------------------|
G|---------------------------------------------------------------------------|
D|---9-9-9-9--------------------------9-9-9-9--------------------------------|
A|---7-7-7-7-9-9-9-9-7-7-7-9--9-9-9---7-7-7-7-9-9-9-9-7-7-7-9--9-9-9---------|
E|-----------7-7-7-7-5-5-5-7--7-7-7-----------7-7-7-7-5-5-5-7--7-7-7---------|

e|---------------------------------------------------------------------------|
B|---------------------------------------------------------------------------|
G|---------------------------------------------------------------------------|
D|---9-9-9-9--------------------------9-9-9-9--------------------------------|
A|---7-7-7-7-9-9-9-9-7-7-7-9--9-9-9---7-7-7-7-7-7-7-7--9-9-9-9-9-9-9---------|
E|-----------7-7-7-7-5-5-5-7--7-7-7-----------5-5-5-5--7-7-7-7-7-7-7---------|

Solo
e|---------------------------------------------------------------------------|
B|----------------------------------------12-14b15r14-12---------------------|
G|-16b18r16-14-13-------------------13-14----------------14-12h13------------|
D|----------------14-------------14--------------------------------14\-------|
A|-------------------14-12-11------------------------------------------------|
E|----------------------------12---------------------------------------------|

e|------------------------------17p16-------------19b21----------------------|
B|------17----19b21-17-19----17-------17-------17-------17-17----17----------|
G|--/18----18-------------18-------------16/18----------------18-------------|
D|---------------------------------------------------------------------------|
A|---------------------------------------------------------------------------|
E|---------------------------------------------------------------------------|

e|--------19-----------------------------------------------------------------|
B|--19b21===r19-17-19b21r19-17-----------12----------------------------------|
G|-----------------------------18--13h14----13h14-9------11b13r11------------|
D|--------------------------------------------------11-9---------------------|
A|---------------------------------------------------------------------------|
E|---------------------------------------------------------------------------|

Verse
e|---------------------------------------------------------------------------|
B|---------------------------------------------------------------------------|
G|---------------------------------------------------------------------------|
D|--9-9-9-9---------9-9-9-9---------9-9-9-9---------9-9-9-9------------------|
A|--7-7-7-7-7-7-7-7-7-7-7-7-7-7-7-7-7-7-7-7-7-7-7-7-7-7-7-7-7-7-7-7----------|
E|----------5-5-5-5---------5-5-5-5---------5-5-5-5---------5-5-5-5----------|

e|---------------------------------------------------------------------------|
B|-----------------------------7-8-7-----------------------------------------|
G|---------------------------7-----------------------------------------------|
D|----------7-7-7-7----------7-------9-9-9-9---------9-9-9-9-----------------|
A|--7-7-7-7-5-5-5-5-7-7-7-7--5-------7-7-7-7-7-7-7-7-7-7-7-7-7-7-7-7---------|
E|--5-5-5-5---------5-5-5-5------------------5-5-5-5---------5-5-5-5---------|

e|---------------------------------------------------------------------------|
B|---------------------------------------------------------------------------|
G|---------------------------------------------------------------------------|
D|----------------------------------9-9-9-9----------------------------------|
A|--9-9-9-9-9-9-9-9-7-7-7-7-7-7-7-7-7-7-7-7-7-7-7-7---9-9-9-9-9-9-9----------|
E|--7-7-7-7-7-7-7-7-5-5-5-5-5-5-5-5---------5-5-5-5---7-7-7-7-7-7-7----------|

Chorus (Repeat and fade)
e|---------------------------------------------------------------------------|
B|---------------------------------------------------------------------------|
G|---------------------------------------------------------------------------|
D|---9-9-9-9--------------------------9-9-9-9--------------------------------|
A|---7-7-7-7-9-9-9-9-7-7-7-9--9-9-9---7-7-7-7-9-9-9-9-7-7-7-9--9-9-9---------|
E|-----------7-7-7-7-5-5-5-7--7-7-7-----------7-7-7-7-5-5-5-7--7-7-7---------|

e|---------------------------------------------------------------------------|
B|---------------------------------------------------------------------------|
G|---------------------------------------------------------------------------|
D|---9-9-9-9--------------------------9-9-9-9--------------------------------|
A|---7-7-7-7-9-9-9-9-7-7-7-9--9-9-9---7-7-7-7-7-7-7-7--9-9-9-9-9-9-9---------|
E|-----------7-7-7-7-5-5-5-7--7-7-7-----------5-5-5-5--7-7-7-7-7-7-7---------|
            
Submit corrections

comments powered by Disqus
↑ Back to top | Hurriganes Tabs for Goodnight Baby. Lyrics for acoustic guitar and electric guitar. Tablatures and chords are parodies/interpretations of the original songs. You may use it for private study, scholarship, research or language learning purposes only