>
 >
Get Along

Get Along Guitar Tabs

Hurriganes - Get Along chords, tabs, tablatures, lyrics

Guitar lessons | Add/correct | Request | Top 50 tabs Artists:  A B C D E F G H I J K L M N O P Q R S T U V W X Y Z 0-9

Get Along Guitar Tabs – Hurriganes

CD, Sheet music, Poster

Do you like Get Along? Share with your friends now
Tabs
-------------------------------------------------------------------------------
Hurriganes- Get Along
Jailbird (1979)
-------------------------------------------------------------------------------

Intro
e|--5-5-5-5-5-----------5-5-5-5-5---------5---------5------------------------|
B|--5-5-5-5-5-7-5-------5-5-5-5-5-7-5-----5-7-5-----5-7-5-----7br8-----------|
G|------------7-5h6---------------7-5h6-----7-5h6-----7-5h6---7br9-----------|
D|------------------7-------------------7---------7---------7----------------|
A|---------------------------------------------------------------------------|
E|---------------------------------------------------------------------------|

Verse
e|---------------------------------------------------------------------------|
B|---------------------------------------------------------------------------|
G|---------------------------------------------------------------------------|
D|---2-2-4-2-2-2-4-2-2-2-4-2-2-2-4-2-2-2-4-2-2-2-4-2-2-2-4-2-2-2-4-2---------|
A|---0-0-0-0-0-0-0-0-0-0-0-0-0-0-0-0-0-0-0-0-0-0-0-0-0-0-0-0-0-0-0-0---------|
E|---------------------------------------------------------------------------|

e|---------------------------------------------------------------------------|
B|---------------------------------------------------------------------------|
G|---2-2-4-2-2-2-4-2-2-2-4-2-2-2-4-2-----------------------------------------|
D|---0-0-0-0-0-0-0-0-0-0-0-0-0-0-0-0-2-2-4-2-2-2-4-2-2-2-4-2-2-2-4-2---------|
A|-----------------------------------0-0-0-0-0-0-0-0-0-0-0-0-0-0-0-0---------|
E|---------------------------------------------------------------------------|

Chorus
e|---------------------------------------------------------------------------|
B|---------------------------------------------------------------------------|
G|-------------------2-2-4-2-2-2-4-2-----------------------------------------|
D|-------------------0-0-0-0-0-0-0-0-2-2-4-2-2-2-4-2--2-2-4-2-2-2-4-2--------|
A|---2-2-4-2-2-2-4-2-----------------0-0-0-0-0-0-0-0--0-0-0-0-0-0-0-0--------|
E|---0-0-0-0-0-0-0-0---------------------------------------------------------|

Verse
e|---------------------------------------------------------------------------|
B|---------------------------------------------------------------------------|
G|---------------------------------------------------------------------------|
D|---2-2-4-2-2-2-4-2-2-2-4-2-2-2-4-2-2-2-4-2-2-2-4-2-2-2-4-2-2-2-4-2---------|
A|---0-0-0-0-0-0-0-0-0-0-0-0-0-0-0-0-0-0-0-0-0-0-0-0-0-0-0-0-0-0-0-0---------|
E|---------------------------------------------------------------------------|

e|---------------------------------------------------------------------------|
B|---------------------------------------------------------------------------|
G|---2-2-4-2-2-2-4-2-2-2-4-2-2-2-4-2-----------------------------------------|
D|---0-0-0-0-0-0-0-0-0-0-0-0-0-0-0-0-2-2-4-2-2-2-4-2-2-2-4-2-2-2-4-2---------|
A|-----------------------------------0-0-0-0-0-0-0-0-0-0-0-0-0-0-0-0---------|
E|---------------------------------------------------------------------------|

Chorus
e|---------------------------------------------------------------------------|
B|---------------------------------------------------------------------------|
G|-------------------2-2-4-2-2-2-4-2-----------------------------------------|
D|-------------------0-0-0-0-0-0-0-0-2-2-4-2-2-2-4-2--2-2-4-2-2-2-4-2--------|
A|---2-2-4-2-2-2-4-2-----------------0-0-0-0-0-0-0-0--0-0-0-0-0-0-0-0--------|
E|---0-0-0-0-0-0-0-0---------------------------------------------------------|

Solo |--4x--|
e|---5-5-------------------------------------17------------------------------|
B|---5-5-7-5-----------------------------------------------------------------|
G|-------7-5---16b18r16-14----14-------16b18^^^^r16-14----14-14----14-14-----|
D|-------------------------16----16-14-----------------16-------16-------16--|
A|---------------------------------------------------------------------------|
E|---------------------------------------------------------------------------|

e|---------------------------------------------------------------------------|
B|---------------------------17-17-17-17-17-17-17-17-------------------------|
G|-----14-14----14----14--16b18-18-18-18-18-18-18-18r16-14----14-14----------|
D|-/16-------16----16--------------------------------------16-------16-------|
A|---------------------------------------------------------------------------|
E|---------------------------------------------------------------------------|

e|---------------------------------------------------------------------------|
B|--17-17-15-15--12---------------------5---5---7---5---7---5--/8-8-8-8-8----|
G|--18-18-16-16--13h14-11-9-9-11-5------5---5---7---5---7---5--/9-9-9-9-9----|
D|---------------------------------7------7---7---7---7---7------------------|
A|------------------------------------7--------------------------------------|
E|---------------------------------------------------------------------------|

Verse
e|---------------------------------------------------------------------------|
B|---------------------------------------------------------------------------|
G|---------------------------------------------------------------------------|
D|---2-2-4-2-2-2-4-2-2-2-4-2-2-2-4-2-2-2-4-2-2-2-4-2-2-2-4-2-2-2-4-2---------|
A|---0-0-0-0-0-0-0-0-0-0-0-0-0-0-0-0-0-0-0-0-0-0-0-0-0-0-0-0-0-0-0-0---------|
E|---------------------------------------------------------------------------|

e|---------------------------------------------------------------------------|
B|---------------------------------------------------------------------------|
G|---2-2-4-2-2-2-4-2-2-2-4-2-2-2-4-2-----------------------------------------|
D|---0-0-0-0-0-0-0-0-0-0-0-0-0-0-0-0-2-2-4-2-2-2-4-2-2-2-4-2-2-2-4-2---------|
A|-----------------------------------0-0-0-0-0-0-0-0-0-0-0-0-0-0-0-0---------|
E|---------------------------------------------------------------------------|

Chorus
e|---------------------------------------------------------------------------|
B|---------------------------------------------------------------------------|
G|-------------------2-2-4-2-2-2-4-2-----------------------------------------|
D|-------------------0-0-0-0-0-0-0-0-2-2-4-2-2-2-4-2--2-2-4-2-2-2-4-2--------|
A|---2-2-4-2-2-2-4-2-----------------0-0-0-0-0-0-0-0--0-0-0-0-0-0-0-0--------|
E|---0-0-0-0-0-0-0-0---------------------------------------------------------|

Solo
e|----------------------------------------------------------------8-----8----|
B|--8-8-8-8-8-8-8-8-10-10-8-8-7-7-5---------5---7p5---------8----------------|
G|--9-9-9-9-9-9-9-9-11-11-9-9-7-7-5h6-------5---7p5---5-7b9---7b9---7b9------|
D|------------------------------------7-5-7---7-----7------------------------|
A|---------------------------------------------------------------------------|
E|---------------------------------------------------------------------------|

e|---------------------------------------------------------------------------|
B|------------5---------------8-8-7-8-8-8-8-7-7-5----------------------------|
G|--7b9r7-5-----/7-7---5------9-9-7-9-9-9-9-7-7-5h6--------------------------|
D|----------7--x-----7---7-5------------------------7-5----------------------|
A|---------------------------------------------------------------------------|
E|---------------------------------------------------------------------------|

e|----------------------------------------------14-12---12-------------------|
B|-12-12-12-12-12----10-10----10----10-12b14-14------14----14--12--10--10-10-|
G|-13-13-13-13-13-/11------11----11--------------------------14--11--11------|
D|---------------------------------------------------------------------------|
A|---------------------------------------------------------------------------|
E|---------------------------------------------------------------------------|

Verse
e|---------------------------------------------------------------------------|
B|---------------------------------------------------------------------------|
G|---------------------------------------------------------------------------|
D|---2-2-4-2-2-2-4-2-2-2-4-2-2-2-4-2-2-2-4-2-2-2-4-2-2-2-4-2-2-2-4-2---------|
A|---0-0-0-0-0-0-0-0-0-0-0-0-0-0-0-0-0-0-0-0-0-0-0-0-0-0-0-0-0-0-0-0---------|
E|---------------------------------------------------------------------------|

e|---------------------------------------------------------------------------|
B|---------------------------------------------------------------------------|
G|---2-2-4-2-2-2-4-2-2-2-4-2-2-2-4-2-----------------------------------------|
D|---0-0-0-0-0-0-0-0-0-0-0-0-0-0-0-0-2-2-4-2-2-2-4-2-2-2-4-2-2-2-4-2---------|
A|-----------------------------------0-0-0-0-0-0-0-0-0-0-0-0-0-0-0-0---------|
E|---------------------------------------------------------------------------|

Chorus
e|---------------------------------------------------------------------------|
B|-----------------------------------2-2----2--------2-----------------------|
G|-------------------2-2-4-2-2-2-4-2-2-2----2--------2-----------------------|
D|-------------------0-0-0-0-0-0-0-0-----4-----4-2---------------------------|
A|---2-2-4-2-2-2-4-2------------------------------------5-6-7----------------|
E|---0-0-0-0-0-0-0-0------------------------------------3-4-5----------------|

e|---------------------------------------------------------------------------|
B|---------------------------------------------------------------------------|
G|--------------------------5-7-5--------------------------------------------|
D|---------5---7p5----5-7-------------7--------------------------------------|
A|-----5-7---7------7-----------------7--------------------------------------|
E|--5-8-------------------------------5--------------------------------------|





Comments


Popular Hurriganes tabs & chords
I Will Stay Intro Chords
Brand New Sucker Tabs
Hold Me Tight Tabs
I Will Stay 2 Tabs
I Will Stay 3 Tabs
It Ain't What You Do Tabs
Lipstick-man Tabs
Oowee-oohla Tabs
Red House Tabs
Say Mama Tabs


Song lyrics



↑ Back to top | Tablatures and chords are parodies/interpretations of the original songs. You may use it for private study, scholarship, research or language learning purposes only
© 2014 AZChords.com Contact us | Privacy policy | DMCA | Add/correct tabs | Request tabs | Top 50 tabs