>
 >
Do You Wanna Dance

Do You Wanna Dance Guitar Tabs

Hurriganes - Do You Wanna Dance chords, tabs, tablatures, lyrics

Guitar lessons | Add/correct | Request | Top 50 tabs Artists:  A B C D E F G H I J K L M N O P Q R S T U V W X Y Z 0-9

Do You Wanna Dance Guitar Tabs – Hurriganes

CD, Sheet music, Poster

Do you like Do You Wanna Dance? Share with your friends now
Tabs
Hurriganes- Do You Wanna Dance


Gtr.1

     E  E  E  E  E  E  E  E     E  E  E  E  E  E  E  E   
E||--------------------------|--------------------------|
B||--------------------------|--------------------------|
G||--------------------------|--3--3--3--3--3--3--3--3--|
D||--4--4--4--4--4--4--4--4--|--4--4--4--4--4--4--4--4--|
A||--------------------------|--------------------------|
E||--------------------------|--------------------------|


  E  E  E  E  E  E  E  E     E  E  E  E  E  E  E  E   
--------------------------|--0--0--0--0--0--0--0--0--|
--2--2--2--2--2--2--2--2--|--2--2--2--2--2--2--2--2--|
--3--3--3--3--3--3--3--3--|--3--3--3--3--3--3--3--3--|
--4--4--4--4--4--4--4--4--|--4--4--4--4--4--4--4--4--|
--------------------------|--------------------------|
--------------------------|--------------------------|


    E  E  E  E  E  E  E  E     E  E  E  E  E  E  E  E   
|---------------------------|--------------------------|
|---------------------------|--------------------------|
|*--4--4--4--x--------------|--------------------------|
|*--4--4--4--x--6--6--6--x--|--2--2--2--x--4--4--4--x--|
|---2--2--2--x--6--6--6--x--|--2--2--2--x--4--4--4--x--|
|---------------4--4--4--x--|--0--0--0--x--2--2--2--x--|


  E  E  E  E  E  E  E  E     E  E  E  E  E  E  E  E     
--------------------------|---------------------------||
--------------------------|---------------------------||
--4--4--4--x--------------|--------------------------*||
--4--4--4--x--6--6--6--x--|--2--2--2--x--4--4--4--x--*||
--2--2--2--x--6--6--6--x--|--2--2--2--x--4--4--4--x---||
--------------4--4--4--x--|--0--0--0--x--2--2--2--x---||


   E  E  E  E  E  E  E  E     E  E  E  E  E  E  E  E   
---------------------------|--------------------------|
---------------------------|--------------------------|
*--4--4--4--x--------------|--------------------------|
*--4--4--4--x--6--6--6--x--|--2--2--2--x--4--4--4--x--|
---2--2--2--x--6--6--6--x--|--2--2--2--x--4--4--4--x--|
---------------4--4--4--x--|--0--0--0--x--2--2--2--x--|


  E  E  E  E  E  E  E  E     E  E  E  E  E  E  E  E     
--------------------------|---------------------------||
--------------------------|---------------------------||
--4--4--4--x--------------|--------------------------*||
--4--4--4--x--6--6--6--x--|--2--2--2--x--4--4--4--x--*||
--2--2--2--x--6--6--6--x--|--2--2--2--x--4--4--4--x---||
--------------4--4--4--x--|--0--0--0--x--2--2--2--x---||


  E  E  E  E  E  E  E  E     E  E  E  Q    E  E  E     E  E  E  E  E  E  E  E   
--------------------------|-------------------------|--------------------------|
--------------------------|-------------------------|--------------------------|
--4--4--4--4--4--4--4--4--|-------------------------|--4--4--4--4--4--4--4--4--|
--4--4--4--4--4--4--4--4--|--2--2--2--4----4--4--4--|--4--4--4--4--4--4--4--4--|
--2--2--2--2--2--2--2--2--|--2--2--2--4----4--4--4--|--2--2--2--2--2--2--2--2--|
--------------------------|--0--0--0--2----2--2--2--|--------------------------|


  E  E  E  Q    E  E  E     E  E  E  E  E  E  E  E     E  E  E  E  E  E  E  E   
-------------------------|--------------------------|--------------------------|
-------------------------|--------------------------|--------------------------|
-------------------------|--4--4--4--4--4--4--4--4--|--------------------------|
--2--2--2--4----4--4--4--|--4--4--4--4--4--4--4--4--|--2--2--2--2--4--4--4--4--|
--2--2--2--4----4--4--4--|--2--2--2--2--2--2--2--2--|--2--2--2--2--4--4--4--4--|
--0--0--0--2----2--2--2--|--------------------------|--0--0--0--0--2--2--2--2--|


  E  E  E  E  E  E  E  E     E  E  E  E  E  E  E  E   
--------------------------|--------------------------|
--------------------------|--------------------------|
--4--4--4--x--------------|--------------------------|
--4--4--4--x--6--6--6--x--|--2--2--2--x--4--4--4--x--|
--2--2--2--x--6--6--6--x--|--2--2--2--x--4--4--4--x--|
--------------4--4--4--x--|--0--0--0--x--2--2--2--x--|


    E  E  E  E  E  E  E  E     E  E  E  E  E  E  E  E   
|---------------------------|--------------------------|
|---------------------------|--------------------------|
|*--4--4--4--x--------------|--------------------------|
|*--4--4--4--x--6--6--6--x--|--2--2--2--x--4--4--4--x--|
|---2--2--2--x--6--6--6--x--|--2--2--2--x--4--4--4--x--|
|---------------4--4--4--x--|--0--0--0--x--2--2--2--x--|


  E  E  E  E  E  E  E  E     E  E  E  E  E  E  E  E     
--------------------------|---------------------------||
--------------------------|---------------------------||
--4--4--4--x--------------|--------------------------*||
--4--4--4--x--6--6--6--x--|--2--2--2--x--4--4--4--x--*||
--2--2--2--x--6--6--6--x--|--2--2--2--x--4--4--4--x---||
--------------4--4--4--x--|--0--0--0--x--2--2--2--x---||


   E  E  E  E  E  E  E  E     E  E  E  E  E  E  E  E   
---------------------------|--------------------------|
---------------------------|--------------------------|
*--4--4--4--x--------------|--------------------------|
*--4--4--4--x--6--6--6--x--|--2--2--2--x--4--4--4--x--|
---2--2--2--x--6--6--6--x--|--2--2--2--x--4--4--4--x--|
---------------4--4--4--x--|--0--0--0--x--2--2--2--x--|


  E  E  E  E  E  E  E  E     E  E  E  E  E  E  E  E     
--------------------------|---------------------------||
--------------------------|---------------------------||
--4--4--4--x--------------|--------------------------*||
--4--4--4--x--6--6--6--x--|--2--2--2--x--4--4--4--x--*||
--2--2--2--x--6--6--6--x--|--2--2--2--x--4--4--4--x---||
--------------4--4--4--x--|--0--0--0--x--2--2--2--x---||


  E  E  E  E  E  E  E  E     E  E  E  Q    E  E  E     E  E  E  E  E  E  E  E   
--------------------------|-------------------------|--------------------------|
--------------------------|-------------------------|--------------------------|
--4--4--4--4--4--4--4--4--|-------------------------|--4--4--4--4--4--4--4--4--|
--4--4--4--4--4--4--4--4--|--2--2--2--4----4--4--4--|--4--4--4--4--4--4--4--4--|
--2--2--2--2--2--2--2--2--|--2--2--2--4----4--4--4--|--2--2--2--2--2--2--2--2--|
--------------------------|--0--0--0--2----2--2--2--|--------------------------|


  E  E  E  Q    E  E  E     E  E  E  E  E  E  E  E     E  E  E  E  E  E  E  E   
-------------------------|--------------------------|--------------------------|
-------------------------|--------------------------|--------------------------|
-------------------------|--4--4--4--4--4--4--4--4--|--------------------------|
--2--2--2--4----4--4--4--|--4--4--4--4--4--4--4--4--|--2--2--2--2--4--4--4--4--|
--2--2--2--4----4--4--4--|--2--2--2--2--2--2--2--2--|--2--2--2--2--4--4--4--4--|
--0--0--0--2----2--2--2--|--------------------------|--0--0--0--0--2--2--2--2--|


  E  E  E  E  E  E  E  E     E  E  E  E  E  E  E  E   
--------------------------|--------------------------|
--------------------------|--------------------------|
--4--4--4--x--------------|--------------------------|
--4--4--4--x--6--6--6--x--|--2--2--2--x--4--4--4--x--|
--2--2--2--x--6--6--6--x--|--2--2--2--x--4--4--4--x--|
--------------4--4--4--x--|--0--0--0--x--2--2--2--x--|


  E  E  E  E  E  E  E  E     E  E  E  E  E  E  E  E   
--------------------------|--------------------------|
--------------------------|--------------------------|
--4--4--4--x--------------|--------------------------|
--4--4--4--x--6--6--6--x--|--2--2--2--x--4--4--4--x--|
--2--2--2--x--6--6--6--x--|--2--2--2--x--4--4--4--x--|
--------------4--4--4--x--|--0--0--0--x--2--2--2--x--|


  E  E  E  E  E  E  E  E     E  E  E  E  E  E  E  E   
--------------------------|--------------------------|
--------------------------|--------------------------|
--4--4--4--x--------------|--------------------------|
--4--4--4--x--6--6--6--x--|--2--2--2--x--4--4--4--x--|
--2--2--2--x--6--6--6--x--|--2--2--2--x--4--4--4--x--|
--------------4--4--4--x--|--0--0--0--x--2--2--2--x--|


  E  E  E  E  E  E  E  E     E  E  E  E  E  E  E  E   
--------------------------|--------------------------|
--------------------------|--------------------------|
--4--4--4--x--------------|--------------------------|
--4--4--4--x--6--6--6--x--|--2--2--2--x--4--4--4--x--|
--2--2--2--x--6--6--6--x--|--2--2--2--x--4--4--4--x--|
--------------4--4--4--x--|--0--0--0--x--2--2--2--x--|


  E  E  E  E  E  E  E  E     E  E  E  E  E  E  E  E   
--------------------------|--------------------------|
--------------------------|--------------------------|
--4--4--4--x--------------|--------------------------|
--4--4--4--x--6--6--6--x--|--2--2--2--x--4--4--4--x--|
--2--2--2--x--6--6--6--x--|--2--2--2--x--4--4--4--x--|
--------------4--4--4--x--|--0--0--0--x--2--2--2--x--|


  E  E  E  E  E  E  E  E     E  E  E  Q    E  E  E     E  E  E  E  E  E  E  E   
--------------------------|-------------------------|--------------------------|
--------------------------|-------------------------|--------------------------|
--4--4--4--4--4--4--4--4--|-------------------------|--4--4--4--4--4--4--4--4--|
--4--4--4--4--4--4--4--4--|--2--2--2--4----4--4--4--|--4--4--4--4--4--4--4--4--|
--2--2--2--2--2--2--2--2--|--2--2--2--4----4--4--4--|--2--2--2--2--2--2--2--2--|
--------------------------|--0--0--0--2----2--2--2--|--------------------------|


  E  E  E  Q    E  E  E     E  E  E  E  E  E  E  E     E  E  E  Q    E  E  E   
-------------------------|--------------------------|-------------------------|
-------------------------|--------------------------|-------------------------|
-------------------------|--4--4--4--4--4--4--4--4--|-------------------------|
--2--2--2--4----4--4--4--|--4--4--4--4--4--4--4--4--|--2--2--2--4----4--4--4--|
--2--2--2--4----4--4--4--|--2--2--2--2--2--2--2--2--|--2--2--2--4----4--4--4--|
--0--0--0--2----2--2--2--|--------------------------|--0--0--0--2----2--2--2--|


  E  E  E  E  E  E  E  E     E  E  E  Q    E  E  E     E  E  E  E  E  E  E  E   
--------------------------|-------------------------|--------------------------|
--------------------------|-------------------------|--------------------------|
--4--4--4--4--4--4--4--4--|-------------------------|--4--4--4--4--4--4--4--4--|
--4--4--4--4--4--4--4--4--|--2--2--2--4----4--4--4--|--4--4--4--4--4--4--4--4--|
--2--2--2--2--2--2--2--2--|--2--2--2--4----4--4--4--|--2--2--2--2--2--2--2--2--|
--------------------------|--0--0--0--2----2--2--2--|--------------------------|


  E  E  E  Q    E  E  E     E  E  E  E  E  E  E  E     E  E  E  Q    E  E  E   
-------------------------|--------------------------|-------------------------|
-------------------------|--------------------------|-------------------------|
-------------------------|--4--4--4--4--4--4--4--4--|-------------------------|
--2--2--2--4----4--4--4--|--4--4--4--4--4--4--4--4--|--2--2--2--4----4--4--4--|
--2--2--2--4----4--4--4--|--2--2--2--2--2--2--2--2--|--2--2--2--4----4--4--4--|
--0--0--0--2----2--2--2--|--------------------------|--0--0--0--2----2--2--2--|


  E  E  E  E  E  E  E  E     E  E  E  E  E  E  E  E   
--------------------------|--------------------------|
--------------------------|--------------------------|
--4--4--4--4--4--4--4--4--|--------------------------|
--4--4--4--4--4--4--4--4--|--2--2--2--2--4--4--4--4--|
--2--2--2--2--2--2--2--2--|--2--2--2--2--4--4--4--4--|
--------------------------|--0--0--0--0--2--2--2--2--|


  E  E  E  E  E  E  E  E     E  E  E  E  E  E  E  E   
--------------------------|--------------------------|
--------------------------|--------------------------|
--------------------------|--3--3--3--3--3--3--3--3--|
--4--4--4--4--4--4--4--4--|--4--4--4--4--4--4--4--4--|
--------------------------|--------------------------|
--------------------------|--------------------------|


                                       |----3----|                            
  E  E  E  E  E  E  E  E     Q    Q    Q    Q    Q       Q    E  E  H         
--------------------------|--0------------------------|----------------------|
--2--2--2--2--2--2--2--2--|--2------------------------|-------------4--------|
--3--3--3--3--3--3--3--3--|--3------------------------|-------------4--------|
--4--4--4--4--4--4--4--4--|--4------------------------|-------------4--------|
--------------------------|----------------------1----|--2----------2--------|
--------------------------|------------2----4---------|----------------------|


  W                  
-------------------||
--L----------------||
--L----------------||
--L----------------||
--L----------------||
-------------------||




Gtr.2

     W                   W                   W                 
E||-------------------|-------------------|-------------------|
B||-------------------|-------------------|-------------------|
G||-------------------|-------------------|-------------------|
D||-------------------|-------------------|-------------------|
A||-------------------|-------------------|-------------------|
E||-------------------|-------------------|-------------------|


  W                     W                   W                 
-------------------||--------------------|-------------------|
-------------------||--------------------|-------------------|
-------------------||*-------------------|-------------------|
-------------------||*-------------------|-------------------|
-------------------||--------------------|-------------------|
-------------------||--------------------|-------------------|


  W                   W                      W                 
-------------------|--------------------||--------------------|
-------------------|--------------------||--------------------|
-------------------|-------------------*||*-------------------|
-------------------|-------------------*||*-------------------|
-------------------|--------------------||--------------------|
-------------------|--------------------||--------------------|


  W                   W                   W                   
-------------------|-------------------|--------------------||
-------------------|-------------------|--------------------||
-------------------|-------------------|-------------------*||
-------------------|-------------------|-------------------*||
-------------------|-------------------|--------------------||
-------------------|-------------------|--------------------||


  W                   W                   W                   W                 
-------------------|-------------------|-------------------|-------------------|
-------------------|-------------------|-------------------|-------------------|
-------------------|-------------------|-------------------|-------------------|
-------------------|-------------------|-------------------|-------------------|
-------------------|-------------------|-------------------|-------------------|
-------------------|-------------------|-------------------|-------------------|


  W                   W                   W                   W                 
-------------------|-------------------|-------------------|-------------------|
-------------------|-------------------|-------------------|-------------------|
-------------------|-------------------|-------------------|-------------------|
-------------------|-------------------|-------------------|-------------------|
-------------------|-------------------|-------------------|-------------------|
-------------------|-------------------|-------------------|-------------------|


    W                   W                   W                 
|--------------------|-------------------|-------------------|
|--------------------|-------------------|-------------------|
|*-------------------|-------------------|-------------------|
|*-------------------|-------------------|-------------------|
|--------------------|-------------------|-------------------|
|--------------------|-------------------|-------------------|


  W                      W                   W                 
--------------------||--------------------|-------------------|
--------------------||--------------------|-------------------|
-------------------*||*-------------------|-------------------|
-------------------*||*-------------------|-------------------|
--------------------||--------------------|-------------------|
--------------------||--------------------|-------------------|


  W                   W                     W                 
-------------------|--------------------||-------------------|
-------------------|--------------------||-------------------|
-------------------|-------------------*||-------------------|
-------------------|-------------------*||-------------------|
-------------------|--------------------||-------------------|
-------------------|--------------------||-------------------|


  W                   W                   W                   W                 
-------------------|-------------------|-------------------|-------------------|
-------------------|-------------------|-------------------|-------------------|
-------------------|-------------------|-------------------|-------------------|
-------------------|-------------------|-------------------|-------------------|
-------------------|-------------------|-------------------|-------------------|
-------------------|-------------------|-------------------|-------------------|


  W                   W                   W                 
-------------------|-------------------|-------------------|
-------------------|-------------------|-------------------|
-------------------|-------------------|-------------------|
-------------------|-------------------|-------------------|
-------------------|-------------------|-------------------|
-------------------|-------------------|-------------------|


  E   E  E  Q.     E  E     E  E  E   E  S   S E  E  E   
-------------------------|------------------------------|
-------------------------|------------7-----------------|
---------4--4------------|-----6--Lb-----6br-L-4--6--4--|
--4h--6------------6--4--|------------------------------|
-------------------------|------------------------------|
-------------------------|------------------------------|


  Q     E  Q.      Q        E  E   E  E  E  E  E  E   
-------------------------|---------------------------|
-------------------------|------------7--9--7--7--7--|
--6b----6--4~------------|-----6S--8-----------------|
-------------------6\----|---------------------------|
-------------------------|---------------------------|
-------------------------|---------------------------|


  E   E  E  E   E  E  E  E     E  E  E  E  E  E  E  E   
---------7---------7--------|--7--------7--------7--9--|
--7S--9-----7S--9-----7--9--|-----7--9-----7--9--------|
----------------------------|--------------------------|
----------------------------|--------------------------|
----------------------------|--------------------------|
----------------------------|--------------------------|


  Q     E  E    E  E    E  E     E  E  E  Q     E  E  E   
--9b----9--7-------7----------|--------------------------|
--------------7g9-----7g9--9--|--7--7--9--7~----7--9--7--|
------------------------------|--------------------------|
------------------------------|--------------------------|
------------------------------|--------------------------|
------------------------------|--------------------------|


   W     W     W     W        W                          
   Q     Q     Q     Q        Q    E  E    E  E   E  E   
--10----10----10----10----|--10-------------------------|
---9-----9-----9-----9----|---9----7--------------------|
--------------------------|-----------9S--11--7S--9--7--|
--------------------------|-----------------------------|
--------------------------|-----------------------------|
--------------------------|-----------------------------|


        PM PM                                           
  Q     E  E  E   E  E   E     E  E  E  Q     E  E  E   
----------------------------|--------------------------|
----------------------------|--7--9--7--7~----7--9--7--|
--7~-----------------7S--8--|--------------------------|
--------9-----7S--9---------|--------------------------|
-----------9----------------|--------------------------|
----------------------------|--------------------------|


  Q      E   Q.      E    E      E   E   E    E   E    E   Q     
-----------------------------|---------------14-----------------|
-------/12--12---------------|--12--14---Lb------14b--14--12----|
--------------------11S--13--|----------------------------------|
-----------------------------|----------------------------------|
-----------------------------|----------------------------------|
-----------------------------|----------------------------------|


   Q        E   E   Q        E   E      E    Q      Q.     Q     
------------------------------------|---------------------------|
--12-----------12--12-----------12--|--14b--14b----14-----------|
--------11g13------------11g13------|---------------------------|
------------------------------------|---------------------------|
------------------------------------|---------------------------|
------------------------------------|---------------------------|


  W                   W                   W                   W                 
-------------------|-------------------|-------------------|-------------------|
-------------------|-------------------|-------------------|-------------------|
-------------------|-------------------|-------------------|-------------------|
-------------------|-------------------|-------------------|-------------------|
-------------------|-------------------|-------------------|-------------------|
-------------------|-------------------|-------------------|-------------------|


  W                   W                   W                   W                 
-------------------|-------------------|-------------------|-------------------|
-------------------|-------------------|-------------------|-------------------|
-------------------|-------------------|-------------------|-------------------|
-------------------|-------------------|-------------------|-------------------|
-------------------|-------------------|-------------------|-------------------|
-------------------|-------------------|-------------------|-------------------|


  W                   W                   W                 
-------------------|-------------------|-------------------|
-------------------|-------------------|-------------------|
-------------------|-------------------|-------------------|
-------------------|-------------------|-------------------|
-------------------|-------------------|-------------------|
-------------------|-------------------|-------------------|


  W                  
-------------------||
-------------------||
-------------------||
-------------------||
-------------------||
-------------------||




Duration Legend
---------------
W - whole
H - half
Q - quarter
E - 8th
S - 16th
T - 32nd
X - 64th
. - note dotted
|-n-|  - n-tuplets


Tablature Legend
----------------
L - tied note
x - dead note
g - grace note
(n) - ghost note
> - accentuded note
NH - natural harmonic
AH - artificial harmonic
TH - tapped harmonic
SH - semi harmonic
PH - pitch harmonic
h - hammer on
p - pull off
b - bend
br - bendRelease
pb - preBend
pbr - preBendRelease
brb - bendReleaseBend
\n/ - tremolo bar dip
\n - tremolo bar dive
-/n - tremolo bar Release up
/n\ - tremolo bar inverted dip
/n - tremolo bar return
-\n - tremolo bar Release down
S - shift slide
s - legato slide
/ -  slide into from below or out of upwards
\ -  slide into from above or out of downwards
~ - vibrato
W - wide vibrato
tr - trill
TP - tremolo picking
T - tapping
S - slap
P - pop
< - fade in
^ - brush up
v - brush down





Comments


Popular Hurriganes tabs & chords
My Only One 4 Bass Tabs
Talking Bout You Bass Tabs
My Only One 1 Chords
Bye Bye Bye Tabs
I Will Stay 3 Tabs
In The Nude 1 Tabs
Keep On Knocking Tabs
Looking For The Tsugu Tabs
Mary Jane Tabs
Roadrunner 2 Tabs


Song lyrics



↑ Back to top | Tablatures and chords are parodies/interpretations of the original songs. You may use it for private study, scholarship, research or language learning purposes only
© 2014 AZChords.com Contact us | Privacy policy | DMCA | Add/correct tabs | Request tabs | Top 50 tabs