» » »

Desiree Tabs (ver.1)

Artists:  A B C D E F G H I J K L M N O P Q R S T U V W X Y Z # 

Desiree Tabs (ver.1)

Hurriganes
Rating:
5/5 (1 vote)

Hard to play? Try these video lessons and learn fast.
                -------------------------------------------------------------------------------
Hurriganes-Desiree
-------------------------------------------------------------------------------

Intro
e|---------------------------------------------------------------------------|
B|---9---9---10-9-------10-9---7---9--9---10-9-----10-9----7-----------------|
G|---9-----9------9----------9-7---9----9------9--------9--7-----------------|
D|---9--------------9----------7---9-------------9---------7-----------------|
A|---7-------------------------5---7-----------------------5--9-9-9-9-9-9-9-9|
E|------------------------------------------------------------7-7-7-7-7-7-7-7|

Verse
e|---------------------------------------------------------------------------|
B|---------------------------------------------------------------------------|
G|---------------------------------------------------------------------------|
D|--9-9-9-9-9-9-9-9-9-9-9-9-9-9-9-9------------------------------------------|
A|--7-7-7-7-7-7-7-7-7-7-7-7-7-7-7-7--9-9-9-9-9-9-9-9-9-9-9-9-9-9-9-9---------|
E|-----------------------------------7-7-7-7-7-7-7-7-7-7-7-7-7-7-7-7---------|

e|---------------------------------------------------------------------------|
B|---------------------------------------------------------------------------|
G|---------------------------------------------------------------------------|
D|--9-9-9-9-9-9-9-9-9-9-9-9-9-9-9-9------------------------------------------|
A|--7-7-7-7-7-7-7-7-7-7-7-7-7-7-7-7--9-9-9-9-9-9-9-9-9-9-9-9-9-9-9-9---------|
E|-----------------------------------7-7-7-7-7-7-7-7-7-7-7-7-7-7-7-7---------|

Chorus
e|---------------------------------------------------------------------------|
B|---------------------------------------------------------------------------|
G|---------------------------------------------------------------------------|
D|--6-6-6-6-6-6-6-6-6-6-6-6-6-6-6-6------------------------------------------|
A|--4-4-4-4-4-4-4-4-4-4-4-4-4-4-4-4--7-7-7-7-7-7-7-7-7-7-7-7-7-7-7-7---------|
E|-----------------------------------5-5-5-5-5-5-5-5-5-5-5-5-5-5-5-5---------|

e|---------------------------------------------------------------------------|
B|---------------------------------------------------------------------------|
G|---------------------------------------------------------------------------|
D|--6-6-6-6-6-6-6-6-6-6-6-6-6-6-6-6------------------------------------------|
A|--4-4-4-4-4-4-4-4-4-4-4-4-4-4-4-4--7-7-7-7-7-7-7-7-9-9-9-9-9-9-9-9---------|
E|-----------------------------------5-5-5-5-5-5-5-5-7-7-7-7-7-7-7-7---------|

e|---------------------------------------------------------------------------|
B|---9---9---10-9-------10-9---7---9--9---10-9-----10-9----7-----------------|
G|---9-----9------9----------9-7---9----9------9--------9--7-----------------|
D|---9--------------9----------7---9-------------9---------7-----------------|
A|---7-------------------------5---7-----------------------5-----------------|
E|---------------------------------------------------------------------------|

Verse
e|---------------------------------------------------------------------------|
B|---------------------------------------------------------------------------|
G|---------------------------------------------------------------------------|
D|--9-9-9-9-9-9-9-9-9-9-9-9-9-9-9-9------------------------------------------|
A|--7-7-7-7-7-7-7-7-7-7-7-7-7-7-7-7--9-9-9-9-9-9-9-9-9-9-9-9-9-9-9-9---------|
E|-----------------------------------7-7-7-7-7-7-7-7-7-7-7-7-7-7-7-7---------|

e|---------------------------------------------------------------------------|
B|---------------------------------------------------------------------------|
G|---------------------------------------------------------------------------|
D|--9-9-9-9-9-9-9-9-9-9-9-9-9-9-9-9------------------------------------------|
A|--7-7-7-7-7-7-7-7-7-7-7-7-7-7-7-7--9-9-9-9-9-9-9-9-9-9-9-9-9-9-9-9---------|
E|-----------------------------------7-7-7-7-7-7-7-7-7-7-7-7-7-7-7-7---------|

Chorus
e|---------------------------------------------------------------------------|
B|---------------------------------------------------------------------------|
G|---------------------------------------------------------------------------|
D|--6-6-6-6-6-6-6-6-6-6-6-6-6-6-6-6------------------------------------------|
A|--4-4-4-4-4-4-4-4-4-4-4-4-4-4-4-4--7-7-7-7-7-7-7-7-7-7-7-7-7-7-7-7---------|
E|-----------------------------------5-5-5-5-5-5-5-5-5-5-5-5-5-5-5-5---------|

e|---------------------------------------------------------------------------|
B|---------------------------------------------------------------------------|
G|---------------------------------------------------------------------------|
D|--6-6-6-6-6-6-6-6-6-6-6-6-6-6-6-6------------------------------------------|
A|--4-4-4-4-4-4-4-4-4-4-4-4-4-4-4-4--7-7-7-7-7-7-7-7-9-9-9-9-9-9-9-9---------|
E|-----------------------------------5-5-5-5-5-5-5-5-7-7-7-7-7-7-7-7---------|

Bridge
e|--12--------------11-----9--------12---------------11------9---------------|
B|--12--------------12----10--------12---------------12-----10---------------|
G|--13--------------11-----9--------13---------------11------9---------------|
D|--9-9-9-9-9-9-9-9------------------9-9-9-9-9-9-9-9-------------------------|
A|--7-7-7-7-7-7-7-7-9-9-9-9-7-7-7-7--7-7-7-7-7-7-7-7--9-9-9-9-7-7-7-7--------|
E|------------------7-7-7-7-5-5-5-5-------------------7-7-7-7-5-5-5-5--------|

e|--12--------------11-----9--------12---------------11------9---------------|
B|--12--------------12----10--------12---------------12-----10---------------|
G|--13--------------11-----9--------13---------------11------9---------------|
D|--9-9-9-9-9-9-9-9------------------9-9-9-9-9-9-9-9-------------------------|
A|--7-7-7-7-7-7-7-7-9-9-9-9-7-7-7-7--7-7-7-7-7-7-7-7--9-9-9-9-7-7-7-7--------|
E|------------------7-7-7-7-5-5-5-5-------------------7-7-7-7-5-5-5-5--------|


e|---------------------------------------------------------------------------|
B|---------------------------------------------------------------------------|
G|---------------------------------------------------------------------------|
D|---------------------------------------------------------------------------|
A|--9-9-9-9-9-9-9-9-9-9-9-9-9-9-9-9------------------------------------------|
E|--7-7-7-7-7-7-7-7-7-7-7-7-7-7-7-7------------------------------------------|

Keyboard solo
e|---------------------------------------------------------------------------|
B|---------------------------------------------------------------------------|
G|---------------------------------------------------------------------------|
D|--9-9-9-9-9-9-9-9-9-9-9-9-9-9-9-9------------------------------------------|
A|--7-7-7-7-7-7-7-7-7-7-7-7-7-7-7-7--9-9-9-9-9-9-9-9-9-9-9-9-9-9-9-9---------|
E|-----------------------------------7-7-7-7-7-7-7-7-7-7-7-7-7-7-7-7---------|

e|---------------------------------------------------------------------------|
B|---------------------------------------------------------------------------|
G|---------------------------------------------------------------------------|
D|--9-9-9-9-9-9-9-9-9-9-9-9-9-9-9-9------------------------------------------|
A|--7-7-7-7-7-7-7-7-7-7-7-7-7-7-7-7--9-9-9-9-9-9-9-9-9-9-9-9-9-9-9-9---------|
E|-----------------------------------7-7-7-7-7-7-7-7-7-7-7-7-7-7-7-7---------|

e|---------------------------------------------------------------------------|
B|---------------------------------------------------------------------------|
G|---------------------------------------------------------------------------|
D|--6-6-6-6-6-6-6-6-6-6-6-6-6-6-6-6------------------------------------------|
A|--4-4-4-4-4-4-4-4-4-4-4-4-4-4-4-4--7-7-7-7-7-7-7-7-7-7-7-7-7-7-7-7---------|
E|-----------------------------------5-5-5-5-5-5-5-5-5-5-5-5-5-5-5-5---------|

e|---------------------------------------------------------------------------|
B|---------------------------------------------------------------------------|
G|---------------------------------------------------------------------------|
D|--6-6-6-6-6-6-6-6-6-6-6-6-6-6-6-6------------------------------------------|
A|--4-4-4-4-4-4-4-4-4-4-4-4-4-4-4-4--7-7-7-7-7-7-7-7-9-9-9-9-9-9-9-9---------|
E|-----------------------------------5-5-5-5-5-5-5-5-7-7-7-7-7-7-7-7---------|

Verse
e|---------------------------------------------------------------------------|
B|---------------------------------------------------------------------------|
G|---------------------------------------------------------------------------|
D|--9-9-9-9-9-9-9-9-9-9-9-9-9-9-9-9------------------------------------------|
A|--7-7-7-7-7-7-7-7-7-7-7-7-7-7-7-7--9-9-9-9-9-9-9-9-9-9-9-9-9-9-9-9---------|
E|-----------------------------------7-7-7-7-7-7-7-7-7-7-7-7-7-7-7-7---------|

e|---------------------------------------------------------------------------|
B|---------------------------------------------------------------------------|
G|---------------------------------------------------------------------------|
D|--9-9-9-9-9-9-9-9-9-9-9-9-9-9-9-9------------------------------------------|
A|--7-7-7-7-7-7-7-7-7-7-7-7-7-7-7-7--9-9-9-9-9-9-9-9-9-9-9-9-9-9-9-9---------|
E|-----------------------------------7-7-7-7-7-7-7-7-7-7-7-7-7-7-7-7---------|

Chorus
e|---------------------------------------------------------------------------|
B|---------------------------------------------------------------------------|
G|---------------------------------------------------------------------------|
D|--6-6-6-6-6-6-6-6-6-6-6-6-6-6-6-6------------------------------------------|
A|--4-4-4-4-4-4-4-4-4-4-4-4-4-4-4-4--7-7-7-7-7-7-7-7-7-7-7-7-7-7-7-7---------|
E|-----------------------------------5-5-5-5-5-5-5-5-5-5-5-5-5-5-5-5---------|

e|---------------------------------------------------------------------------|
B|---------------------------------------------------------------------------|
G|---------------------------------------------------------------------------|
D|--6-6-6-6-6-6-6-6-6-6-6-6-6-6-6-6------------------------------------------|
A|--4-4-4-4-4-4-4-4-4-4-4-4-4-4-4-4--7-7-7-7-7-7-7-7-9-9-9-9-9-9-9-9---------|
E|-----------------------------------5-5-5-5-5-5-5-5-7-7-7-7-7-7-7-7---------|

Bridge
e|--12--------------11-----9--------12---------------11------9---------------|
B|--12--------------12----10--------12---------------12-----10---------------|
G|--13--------------11-----9--------13---------------11------9---------------|
D|--9-9-9-9-9-9-9-9------------------9-9-9-9-9-9-9-9-------------------------|
A|--7-7-7-7-7-7-7-7-9-9-9-9-7-7-7-7--7-7-7-7-7-7-7-7--9-9-9-9-7-7-7-7--------|
E|------------------7-7-7-7-5-5-5-5-------------------7-7-7-7-5-5-5-5--------|

e|--12--------------11-----9--------12---------------11------9---------------|
B|--12--------------12----10--------12---------------12-----10---------------|
G|--13--------------11-----9--------13---------------11------9---------------|
D|--9-9-9-9-9-9-9-9------------------9-9-9-9-9-9-9-9-------------------------|
A|--7-7-7-7-7-7-7-7-9-9-9-9-7-7-7-7--7-7-7-7-7-7-7-7--9-9-9-9-7-7-7-7--------|
E|------------------7-7-7-7-5-5-5-5-------------------7-7-7-7-5-5-5-5--------|

e|--12--------------11-----9--------12---------------11------9---------------|
B|--12--------------12----10--------12---------------12-----10---------------|
G|--13--------------11-----9--------13---------------11------9---------------|
D|--9-9-9-9-9-9-9-9------------------9-9-9-9-9-9-9-9-------------------------|
A|--7-7-7-7-7-7-7-7-9-9-9-9-7-7-7-7--7-7-7-7-7-7-7-7--9-9-9-9-7-7-7-7--------|
E|------------------7-7-7-7-5-5-5-5-------------------7-7-7-7-5-5-5-5--------|

e|--12--------------11-----9-----------12------------------------------------|
B|--12--------------12----10-----------12------------------------------------|
G|--13--------------11-----9-----------13------------------------------------|
D|--9-9-9-9-9-9-9-9--------------------14------------------------------------|
A|--7-7-7-7-7-7-7-7-9-9-9-9-7-7-7-7----14------------------------------------|
E|------------------7-7-7-7-5-5-5-5----12------------------------------------|
            
Hard to play? Try these video lessons and learn fast. | Correct




comments powered by Disqus
↑ Back to top | Tablatures and chords are parodies/interpretations of the original songs. You may use it for private study, scholarship, research or language learning purposes only