>
 >
Crazy Days

Crazy Days Guitar Tabs

Hurriganes - Crazy Days chords, tabs, tablatures, lyrics

Guitar lessons | Add/correct | Request | Top 50 tabs Artists:  A B C D E F G H I J K L M N O P Q R S T U V W X Y Z 0-9

Crazy Days Guitar Tabs – Hurriganes

CD, Sheet music, Poster

Do you like Crazy Days? Share with your friends now
Tabs
-------------------------------------------------------------------------------
Hurriganes-Crazy Days
(Aaltonen-Häkkinen-Kallio)
-------------------------------------------------------------------------------

Intro
e|---------------------------------------------------------------------------|
B|---------------------------------------------------------------------------|
G|-----------------------12-12--10-------------------------------------------|
D|--------------10-12----12-12--10-10-11-12----------------------------------|4x
A|--------------10-12--------------10-11-12----------------------------------|
E|--10-10-13-10-------13-----------------------------------------------------|

Verse
e|---------------------------------------------------------------------------|
B|---------------------------------------------------------------------------|
G|-----------------------12-12--10-------------------------------------------|
D|--------------10-12----12-12--10-10-11-12----------------------------------|
A|--------------10-12--------------10-11-12----------------------------------|
E|--10-10-13-10-------13-----------------------------------------------------|


e|---------------------------------------------------------------------------|
B|---------------------------------------------------------------------------|
G|-----------------------12-12--10-------------------------------------------|
D|--------------10-12----12-12--10-10-11-12----------------------------------|
A|--------------10-12--------------10-11-12----------------------------------|
E|--10-10-13-10-------13-----------------------------------------------------|


e|---------------------------------------------------------------------------|
B|---------------------------------------------------------------------------|
G|-----------------------12-12--10-------------------------------------------|
D|--------------10-12----12-12--10-10-11-12----------------------------------|
A|--------------10-12--------------10-11-12----------------------------------|
E|--10-10-13-10-------13-----------------------------------------------------|


e|---------------------------------------------------------------------------|
B|---------------------------------------------------------------------------|
G|-----------------------12-12--10--10---------------------------------------|
D|--------------10-12----12-12--10--10---------------------------------------|
A|--------------10-12--------------------------------------------------------|
E|--10-10-13-10-------13-----------------------------------------------------|
 |                                                                           |
e|---------------------------------------------------------------------------|
B|---10-----12-----13----13-13-----------------------------------------------|
G|---12b14--14b16--15b17-17-17-----------------------------------------------|
D|---------------------------------------------------------------------------|
A|---------------------------------------------------------------------------|
E|---------------------------------------------------------------------------|

Chorus
e|---------------------------------------------------------------------------|
B|---------------------------------------------------------------------------|
G|---5---5----4---4------------------------12--12--10--10--------------------|
D|---5---5----5---5---------------10-12----12--12--10--10--------------------|
A|---3---3----2---2---------------10-12--------------------------------------|
E|--------------------10-10-13-10-------13-----------------------------------|
 |                                                                           |
e|---------------------------------------------------------------------------|
B|-----------------------10-10----10----10-10----10-10-----------------------|
G|-----------------------10-10----10----10-10----10-10-----------------------|
D|-----------------------------12----12-------12-------12--------------------|
A|---------------------------------------------------------------------------|
E|---------------------------------------------------------------------------|


e|---------------------------------------------------------------------------|
B|---------------------------------------------------------------------------|
G|---5---5----4---4------------------------12--12--10------------------------|
D|---5---5----5---5---------------10-12----12--12--10--10-11-12--------------|
A|---3---3----2---2---------------10-12----------------10-11-12--------------|
E|--------------------10-10-13-10-------13-----------------------------------|


e|---------------------------------------------------------------------------|
B|---------------------------------------------------------------------------|
G|-----------------------12-12--10-------------------------------------------|
D|--------------10-12----12-12--10-10-11-12----------------------------------|
A|--------------10-12--------------10-11-12----------------------------------|
E|--10-10-13-10-------13-----------------------------------------------------|


Verse
e|---------------------------------------------------------------------------|
B|---------------------------------------------------------------------------|
G|-----------------------12-12--10-------------------------------------------|
D|--------------10-12----12-12--10-10-11-12----------------------------------|
A|--------------10-12--------------10-11-12----------------------------------|
E|--10-10-13-10-------13-----------------------------------------------------|


e|---------------------------------------------------------------------------|
B|---------------------------------------------------------------------------|
G|-----------------------12-12--10-------------------------------------------|
D|--------------10-12----12-12--10-10-11-12----------------------------------|
A|--------------10-12--------------10-11-12----------------------------------|
E|--10-10-13-10-------13-----------------------------------------------------|


e|---------------------------------------------------------------------------|
B|---------------------------------------------------------------------------|
G|-----------------------12-12--10-------------------------------------------|
D|--------------10-12----12-12--10-10-11-12----------------------------------|
A|--------------10-12--------------10-11-12----------------------------------|
E|--10-10-13-10-------13-----------------------------------------------------|


e|---------------------------------------------------------------------------|
B|---------------------------------------------------------------------------|
G|-----------------------12-12--10--10---------------------------------------|
D|--------------10-12----12-12--10--10---------------------------------------|
A|--------------10-12--------------------------------------------------------|
E|--10-10-13-10-------13-----------------------------------------------------|
 |                                                                           |
e|---------------------------------------------------------------------------|
B|---10-----12-----13----13-13-----------------------------------------------|
G|---12b14--14b16--15b17-17-17-----------------------------------------------|
D|---------------------------------------------------------------------------|
A|---------------------------------------------------------------------------|
E|---------------------------------------------------------------------------|

Chorus
e|---------------------------------------------------------------------------|
B|---------------------------------------------------------------------------|
G|---5---5----4---4------------------------12--12--10--10--------------------|
D|---5---5----5---5---------------10-12----12--12--10--10--------------------|
A|---3---3----2---2---------------10-12--------------------------------------|
E|--------------------10-10-13-10-------13-----------------------------------|
 |                                                                           |
e|---------------------------------------------------------------------------|
B|-----------------------10-10----10-10---10-10----10-10---------------------|
G|-----------------------10-10----10-10---10-10----10-10---------------------|
D|-----------------------------12-------12-------12-------12-----------------|
A|---------------------------------------------------------------------------|
E|---------------------------------------------------------------------------|


e|---------------------------------------------------------------------------|
B|---------------------------------------------------------------------------|
G|---5---5----4---4----------------------------------------------------------|
D|---5---5----5---5----------------------------------------------------------|
A|---3---3----2---2---12-12-12-12-12-12-12-12--------------------------------|
E|--------------------10-10-10-10-10-10-10-10-10-10-8-8-7-7-5-3--------------|


e|---------------------------------------------------------------------------|
B|-----------------------------------------------------13b15-13b15-13b15-----|
G|---------------------------------------------------------------------------|
D|-----------------------------------7-7-9-7-7-7-9-7-7-7-9-7-7-7-9-7---------|
A|--5-5-7-5-5-5-7-5-5-5-7-5-5-5-7-5--5-5-5-5-5-5-5-5-5-5-5-5-5-5-5-5---------|
E|--3-3-3-3-3-3-3-3-3-3-3-3-3-3-3-3------------------------------------------|


e|---------------------------------------------------------------------------|
B|-------------------------------------------------------10--10--------------|
G|-------------------------------------------------------10--10--------------|
D|---------------------------------------------------------------------------|
A|--5-5-7-5-5-5-7-5-5-5-7-5-5-5-7-5--7-7-7-7-7-7-7-7-7-----------------------|
E|--3-3-3-3-3-3-3-3-3-3-3-3-3-3-3-3--5-5-5-5-5-5-5-5-5-----------------------|

Verse
e|---------------------------------------------------------------------------|
B|---------------------------------------------------------------------------|
G|-----------------------12-12--10-------------------------------------------|
D|--------------10-12----12-12--10-10-11-12----------------------------------|
A|--------------10-12--------------10-11-12----------------------------------|
E|--10-10-13-10-------13-----------------------------------------------------|


e|---------------------------------------------------------------------------|
B|---------------------------------------------------------------------------|
G|-----------------------12-12--10-------------------------------------------|
D|--------------10-12----12-12--10-10-11-12----------------------------------|
A|--------------10-12--------------10-11-12----------------------------------|
E|--10-10-13-10-------13-----------------------------------------------------|


e|---------------------------------------------------------------------------|
B|---------------------------------------------------------------------------|
G|-----------------------12-12--10-------------------------------------------|
D|--------------10-12----12-12--10-10-11-12----------------------------------|
A|--------------10-12--------------10-11-12----------------------------------|
E|--10-10-13-10-------13-----------------------------------------------------|


e|---------------------------------------------------------------------------|
B|---------------------------------------------------------------------------|
G|-----------------------12-12--10--10---------------------------------------|
D|--------------10-12----12-12--10--10---------------------------------------|
A|--------------10-12--------------------------------------------------------|
E|--10-10-13-10-------13-----------------------------------------------------|
 |                                                                           |
e|---------------------------------------------------------------------------|
B|---10-----12-----13----13-13-----------------------------------------------|
G|---12b14--14b16--15b17-17-17-----------------------------------------------|
D|---------------------------------------------------------------------------|
A|---------------------------------------------------------------------------|
E|---------------------------------------------------------------------------|

Chorus
e|---------------------------------------------------------------------------|
B|---------------------------------------------------------------------------|
G|---5---5----4---4------------------------12--12--10--10--------------------|
D|---5---5----5---5---------------10-12----12--12--10--10--------------------|
A|---3---3----2---2---------------10-12--------------------------------------|
E|--------------------10-10-13-10-------13-----------------------------------|


e|---------------------------------------------------------------------------|
B|---------------------------------------------------------------------------|
G|---5---5----4---4----------------------------------------------------------|
D|---5---5----5---5----------------------------------------------------------|
A|---3---3----2---2---12-12-12-12-12-12-12-12--------------------------------|
E|--------------------10-10-10-10-10-10-10-10-10-10-8-8-7-7-5-3--------------|

Solo G5                                       D5
e|--------------------------------------------------10-----------------------|
B|---------------------------------------------------------------------------|
G|--14b16-14-12-14-12--14b16r14-12-14-12-14-12-9b11^^^^11r9-7-9-7------------|
D|---------------------------------------------------------------------------|
A|---------------------------------------------------------------------------|
E|---------------------------------------------------------------------------|

                          G5
e|---------------------------------------------------------------------------|
B|-------10-13-10-13-15\-----------------------------------------------------|
G|--9/11------------------14b16-14-12-14-12-14b16r14-12----12----------------|
D|------------------------------------------------------14-------------------|
A|---------------------------------------------------------------------------|
E|---------------------------------------------------------------------------|

  A5                                              G5
e|---------------------------------------------------------------------------|
B|-------15-16-17----------------------------------------15-15-18-15---------|
G|-14B16----------16b17-16-14-14-16p14----14-16-14-15/16---------------------|
D|-------------------------------------16------------------------------------|
A|---------------------------------------------------------------------------|
E|---------------------------------------------------------------------------|

                      D5
e|--------------------15-14-15-14-15b17-13-------13-15-13-14b14.5------------|
B|--------15-15-18-15----------------------15-15-------------------15-13-----|
G|--15/16--------------------------------------------------------------------|
D|---------------------------------------------------------------------------|
A|---------------------------------------------------------------------------|
E|---------------------------------------------------------------------------|

   G5                                       D5
e|------------------------------------------17b-17-16-15-13------------------|
B|--------15-15-17-15-17b-15-17p15-15-17-15-----------------17-13-----10-----|
G|--15/16---------------------------------------------------------14\-10-----|
D|---------------------------------------------------------------------------|
A|---------------------------------------------------------------------------|
E|---------------------------------------------------------------------------|


e|---------------------------------------------------------------------------|
B|---------------------------------------------------------------------------|
G|-----------------------12-12--10-------------------------------------------|
D|--------------10-12----12-12--10-10-11-12----------------------------------|2x
A|--------------10-12--------------10-11-12----------------------------------|
E|--10-10-13-10-------13-----------------------------------------------------|


Verse
e|---------------------------------------------------------------------------|
B|---------------------------------------------------------------------------|
G|-----------------------12-12--10-------------------------------------------|
D|--------------10-12----12-12--10-10-11-12----------------------------------|
A|--------------10-12--------------10-11-12----------------------------------|
E|--10-10-13-10-------13-----------------------------------------------------|


e|---------------------------------------------------------------------------|
B|---------------------------------------------------------------------------|
G|-----------------------12-12--10-------------------------------------------|
D|--------------10-12----12-12--10-10-11-12----------------------------------|
A|--------------10-12--------------10-11-12----------------------------------|
E|--10-10-13-10-------13-----------------------------------------------------|


e|---------------------------------------------------------------------------|
B|---------------------------------------------------------------------------|
G|-----------------------12-12--10-------------------------------------------|
D|--------------10-12----12-12--10-10-11-12----------------------------------|
A|--------------10-12--------------10-11-12----------------------------------|
E|--10-10-13-10-------13-----------------------------------------------------|


e|---------------------------------------------------------------------------|
B|---------------------------------------------------------------------------|
G|-----------------------12-12--10--10---------------------------------------|
D|--------------10-12----12-12--10--10---------------------------------------|
A|--------------10-12--------------------------------------------------------|
E|--10-10-13-10-------13-----------------------------------------------------|
 |                                                                           |
e|---------------------------------------------------------------------------|
B|---10-----12-----13----13-13-----------------------------------------------|
G|---12b14--14b16--15b17-17-17-----------------------------------------------|
D|---------------------------------------------------------------------------|
A|---------------------------------------------------------------------------|
E|---------------------------------------------------------------------------|


Chorus
e|---------------------------------------------------------------------------|
B|---------------------------------------------------------------------------|
G|---5---5----4---4------------------------12--12--10--10--------------------|
D|---5---5----5---5---------------10-12----12--12--10--10--------------------|
A|---3---3----2---2---------------10-12--------------------------------------|
E|--------------------10-10-13-10-------13-----------------------------------|
 |                                                                           |
e|---------------------------------------------------------------------------|
B|-----------------------10-10----10-10---10-10----10-10---------------------|
G|-----------------------10-10----10-10---10-10----10-10---------------------|
D|-----------------------------12-------12-------12-------12-----------------|
A|---------------------------------------------------------------------------|
E|---------------------------------------------------------------------------|


e|--------------------------------------------------------||
B|--------------------------------------------------------||
G|---5---5----4---4-----7---------------------------------||
D|---5---5----5---5-----7---------------------------------||
A|---3---3----2---2-----5---------------------------------||
E|--------------------------------------------------------||





Comments


Popular Hurriganes tabs & chords
Bourbon Street Intro Tabs
Brand New Sucker Tabs
Down The Line Tabs
Hip Down Tabs
I Will Stay Tabs
Im Ready Tabs
Keep On Knocking Tabs
Keep On Movin Tabs
Talkin 'Bout You Tabs
Keep On Movin Ukulele


Song lyrics



↑ Back to top | Tablatures and chords are parodies/interpretations of the original songs. You may use it for private study, scholarship, research or language learning purposes only
© 2014 AZChords.com Contact us | Privacy policy | DMCA | Add/correct tabs | Request tabs | Top 50 tabs