» » »

Hurriganes, Chinatown Tabs (ver.1)

Artists:  A B C D E F G H I J K L M N O P Q R S T U V W X Y Z # 

Chinatown Tabs (ver.1)

Hurriganes Tabs
 Rating:
4.2/5 (5 votes)
Chinatown lessons Tabs too difficult? Try these video lessons and learn fast
1
                        Please type to subject field "tab"

Hurriganes - Chinatown

Standard tuning: EADGBe (Europe - EADGHe)

Legend
h = hammer-on
p = pull-off
^ = full-bend
^½ = Half-bend
^% = quarter-bend
/ = slide
~ = vibra
p.m. = palm mute
T = tap

INTRO

Guitar 1

Keep these pressed
in the whole intro
      \/
e|----5------8-5-------------------|
B|----5--8-5-----------------------|
G|---------------------------------|   Play this part 6 times!
D|---------------------------------|
A|---------------------------------|
E|---------------------------------|


And then, play this:

e|---5------8-5--5~~~~|
B|---5--8-5------5~~~~|
G|--------------------|
D|--------------------|
A|--------------------|
E|--------------------|

Then, guitar 1:
e|----5------8-5------|
B|----5--8-5----------|
G|--------------------| Play this four times,
D|--------------------| and listen the song for timing!
A|--------------------|
E|--------------------|

At the same time, guitar 2:
e|---------------------------------|
B|---------------------------------|
G|---------------------------------|
D|-2-2--4-2--2-2--4-2--2-2--4-2----| Play this 4 times,
A|-0-0--0-0--0-0--0-0--0-0--0-0----| listen for timing
E|---------------------------------|
  p.m.--------------------------

VERSE

e|-------|
B|-------|
G|-------|
D|-------| Once this, and move to next one
A|--3-4--|
E|--5-6--|

e|-----------------------------------------------------------------------|
B|-----------------------------------------------------------------------|
G|-----------------------------------------------------------------------|
D|-2-2--4-2--2-2--4-2--2-2--4-2--2-2--4-2--2-2--4-2--2-2--4-2--2-2--4-2--|
A|-0-0--0-0--0-0--0-0--0-0--0-0--0-0--0-0--0-0--0-0--0-0--0-0--0-0--0-0--|
E|-----------------------------------------------------------------------|
  p.m.__________________________________________________________________

e|-------|
B|-------|
G|-------|
D|-------| This once again
A|--3-4--|
E|--5-6--|

e|-----------------------------------------------------------------------|
B|-----------------------------------------------------------------------|
G|-----------------------------------------------------------------------|
D|-2-2--4-2--2-2--4-2--2-2--4-2--2-2--4-2--2-2--4-2--2-2--4-2--2-2--4-2--|
A|-0-0--0-0--0-0--0-0--0-0--0-0--0-0--0-0--0-0--0-0--0-0--0-0--0-0--0-0--|
E|-----------------------------------------------------------------------|
  p.m.__________________________________________________________________


e|-------|
B|-------|
G|-------|
D|--3-4--| Then this
A|--5-6--|
E|-------|

e|-----------------------------------------------------------------------|
B|-----------------------------------------------------------------------|
G|-2-2--4-2--2-2--4-2--2-2--4-2--2-2--4-2--2-2--4-2--2-2--4-2--2-2--4-2--|
D|-0-0--0-0--0-0--0-0--0-0--0-0--0-0--0-0--0-0--0-0--0-0--0-0--0-0--0-0--|
A|-----------------------------------------------------------------------|
E|-----------------------------------------------------------------------|
  p.m.__________________________________________________________________

e|-------|
B|-------|
G|-------|
D|--3-4--| Then this
A|--5-6--|
E|-------|

e|-----------------------------------------------------------------------|
B|-----------------------------------------------------------------------|
G|-2-2--4-2--2-2--4-2--2-2--4-2--2-2--4-2--2-2--4-2--2-2--4-2--2-2--4-2--|
D|-0-0--0-0--0-0--0-0--0-0--0-0--0-0--0-0--0-0--0-0--0-0--0-0--0-0--0-0--|
A|-----------------------------------------------------------------------|
E|-----------------------------------------------------------------------|
  p.m.__________________________________________________________________

e|-------------|
B|-------------|
G|--3-3-3-3-3--| finish the first verse with this.
D|--5-5-5-5-5--|
A|-------------|
E|-------------|

AFTER THAT, REPEAT SECTION "VERSE" AGAIN.

I DONT KNOW THE SOLO, BUT ILL PROMISE TO POST IT AS SOON AS I FIND IT OUT!

REPEAT VERSE

REPEAT INTRO (LISTEN SONG...)
            
Submit corrections

comments powered by Disqus
↑ Back to top | Hurriganes Tabs for Chinatown. Lyrics for acoustic guitar and electric guitar. 1 Tablatures and chords are parodies/interpretations of the original songs. You may use it for private study, scholarship, research or language learning purposes only