» » »

Bourbon Street Tabs (ver.2)

Artists:  A B C D E F G H I J K L M N O P Q R S T U V W X Y Z # 

Bourbon Street Tabs (ver.2)

Hurriganes
Rating:
0/5 (0 votes)

Hard to play? Try these video lessons and learn fast.
                (Intro)
Solo gtr
Chorus/Intro
2x
|---------0--0-------------------------------------|
|-0-1--1-------3--1--3-----------------------------|
|--------------------------------------------------|
|--------------------------------------------------|
|--------------------------------------------------|
|--------------------------------------------------|
|-------|
    3x
All verses
|-0------------------------------------------------------------|
|---3--1-0--1------1---1-1---0-1--1--3--3--1-0---1--1-1-1--3---|
|-------------2--2---2-----0-----------------------------------|
|--------------------------------------------------------------|
|--------------------------------------------------------------|
|--------------------------------------------------------------|
Before Solo
|-1-1-1-1--1-0----1-1-1-1-1-0---0-0---------------------------------------|
|--------------3--------------3-------------------0-----------------------|
|----------------------------------------0----0---2-----------------------|
|--------------------------------------2-----2----2-----------------------|
|------------------------------------3-----2------------------------------|
|-------------------------------------------------------------------------|

|-1-1-1-1-1-1-0---0-0----1-1-1-1-1-0---3-3--------------------------------|
|---------------3--------------------3----------------0-------------------|
|----------------------------------------------0---0--2-------------------|
|--------------------------------------------2----2---2-------------------|
|------------------------------------------3-----2-------3-3-3-3-3-3------|
|--------------------------------------------------------1-1-1-1-1-1------|
Continued
|------------------------|
|------------------------|
|------------------------|
|------------------------|
|-5-5-5-5-5-5------------|
|-3-3-3-3-3-3------------|

Solo

|---------------------------------|----------------------------------|
|-------------------8-------------|----------------------------------|
|------5p7-5----7b9---7b9---------|-7b9--7-5------7b9rbp5------------|
|--5hp7---------------------------|----------7-5--------7-5----------|
|---------------------------------|----------------------------------|
|---------------------------------|----------------------------------|

|-------------------------|----8----8-8------10b12-8---------|
|----8-10---8-10-10-8-----|-10---10-----10-----------10-8-10-|
|-9-------9---------------|----------------------------------|
|-------------------------|----------------------------------|
|-------------------------|----------------------------------|
|-------------------------|----------------------------------|

End
|-1-1-1-1--1-0----1-1-1-1-1-0---0-0---------------------------------------|
|--------------3--------------3-------------------0-----------------------|
|----------------------------------------0----0---2-----------------------|
|--------------------------------------2-----2----2-----------------------|
|------------------------------------3-----2------------------------------|
|-------------------------------------------------------------------------|

|-1-1-1-1-1-1-0---0-0----1-1-1-1-1-0---3-3--------------------------------|
|---------------3--------------------3----------------0-------------------|
|----------------------------------------------0---0--2-------------------|
|--------------------------------------------2----2---2-------------------|
|------------------------------------------3-----2------------------------|
|-------------------------------------------------------------------------|

                                           |--------------|
                                                  2x
            
Hard to play? Try these video lessons and learn fast. | Correct




comments powered by Disqus
↑ Back to top | Tablatures and chords are parodies/interpretations of the original songs. You may use it for private study, scholarship, research or language learning purposes only