» » »

Bourbon Street Chords (ver.1)

Artists:  A B C D E F G H I J K L M N O P Q R S T U V W X Y Z # 

Bourbon Street Chords (ver.1)

Hurriganes
Rating:
0/5 (0 votes)

Hard to play? Try these video lessons and learn fast.
                
 C                 Am
Everything goes on late here
 F           G
Me and Sally Brown
 C              Am
Sitting back in a Cadillac
 F                 G
Ain't got no worries at
 C
 Am
 F
 G
Bop to my my baby
 C
 Am
 F
 G
Watching my baby
 C              Am
Well, you get on famous
 F           G
Me and Jenny Brown
 C          Am
Smoking and talking there
 F             G
I'm so glad I'm on
 C          
 Am
 F
 G
Bop To My Baby
F                       G
All the people smoke outside
 F                      G
Everything is keeping high
 F                          G
Come see me, hey, I got the best
 F                        G
Is one enough fly to the west

e|-----------------------------------|
b|--------------------0--------------|
g|-------0-------0----2--------------|
d|-----2-------2------2--------------|
a|---3-------2--------0--------------|
e|-----------------------------------|

 C                 Am
And now I know the difference
 F                 G
Of me and Johnny's hands
 C                 Am
Me and moma peanut butter
 F                 G
Get your head in your bed
 C
 Am
Bourbon Street 
 F
 G
Bop to my Baby
 F                      G
All the people smoke outside
 F                   G
Evrything is keeping high



e|-----------------------------------|
b|--------------------0--------------|
g|-------0-------0----2--------------|
d|-----2-------2------2--------------|
a|---3-------2--------0--------------|
e|-----------------------------------|2x


Solo

|---------------------------------|----------------------------------|
|-------------------8-------------|----------------------------------|
|------5-7-5----7b9---7b9---------|-7b9--7-5------7b9b5--------------|
|--5h7----------------------------|----------7-5--------7-5----------|
|---------------------------------|----------------------------------|
|---------------------------------|----------------------------------|

|---------------------------------|----8----8-8------10b12-8---------|
|--------8-10---8-10-8------------|-10---10-----10-8---------10-8-10-|
|9s10s9-9----9--------------------|----------------------------------|
|---------------------------------|----------------------------------|
|---------------------------------|----------------------------------|
|---------------------------------|----------------------------------|

And Intro

|------------------------------------|
|------------------------------------|
|------------------------------------|
|------------------------1h2-2-0---0-|
|-2-3--3--2-3--3--2-3--3---------3---|
|------------------------------------|

Have Fun!
            
Hard to play? Try these video lessons and learn fast. | Correct




comments powered by Disqus
↑ Back to top | Tablatures and chords are parodies/interpretations of the original songs. You may use it for private study, scholarship, research or language learning purposes only