>
 >
Blue Suede Shoes

Blue Suede Shoes Guitar Tabs

Hurriganes - Blue Suede Shoes chords, tabs, tablatures, lyrics

Guitar lessons | Add/correct | Request | Top 50 tabs Artists:  A B C D E F G H I J K L M N O P Q R S T U V W X Y Z 0-9

Blue Suede Shoes Guitar Tabs – Hurriganes

CD, Sheet music, Poster

Do you like Blue Suede Shoes? Share with your friends now
Tabs
Hurriganes- Blue Suede Shoes                                 


                                                                     
Gtr.1

     W                   W                   W                 
E||-------------------|-------------------|-------------------|
B||-------------------|-------------------|-------------------|
G||-------------------|-------------------|-------------------|
D||-------------------|-------------------|-------------------|
A||-------------------|-------------------|-------------------|
E||-------------------|-------------------|-------------------|


  H        E  Q.        W                   H        E  Q.      
---------------------|-------------------|---------------------|
---------------------|-------------------|---------------------|
--------------6------|--7----------------|--L-----------6------|
--------------6------|--7----------------|--L-----------6------|
--------------4------|--5----------------|--L-----------4------|
---------------------|-------------------|---------------------|


  W                   H        E  Q.        W                 
-------------------|---------------------|-------------------|
-------------------|---------------------|-------------------|
--7----------------|--L-----------6------|--7----------------|
--7----------------|--L-----------6------|--7----------------|
--5----------------|--L-----------4------|--5----------------|
-------------------|---------------------|-------------------|


  H        E  Q.        W                   H        E  Q.      
---------------------|-------------------|---------------------|
---------------------|-------------------|---------------------|
--L-----------6------|--7----------------|--L-----------6------|
--L-----------6------|--7----------------|--L-----------6------|
--L-----------4------|--5----------------|--L-----------4------|
---------------------|-------------------|---------------------|


  Q    Q.     Q.        Q    Q.     Q.        Q    H.            
---------------------|---------------------|--------------------|
---------------------|---------------------|--------------------|
--7-----------6------|--7-----------6------|--7-----------------|
--7-----------6------|--7-----------6------|--7-----------------|
--5-----------4------|--5-----------4------|--5-----------------|
---------------------|---------------------|--------------------|


  Q     Q     Q     Q        E  E  E  E  E  E  E  E   
--------------------------|--------------------------|
--------------------------|--------------------------|
--------------------------|--------------------------|
--7S----5S----4S----2\----|--------------------------|
--------------------------|--5--5--7--5--5--5--7--5--|
--------------------------|--3--3--3--3--3--3--3--3--|


  E  E  E  E  E  E  E  E     E  E  E  E  E  E  E  E   
--------------------------|--------------------------|
--------------------------|--------------------------|
--------------------------|--------------------------|
--------------------------|--7--7--9--7--7--7--9--7--|
--5--5--7--5--5--5--7--5--|--5--5--5--5--5--5--5--5--|
--3--3--3--3--3--3--3--3--|--------------------------|


  E  E  E  E  E  E  E  E     E  E  E  E  E  E  E  E   
--------------------------|--------------------------|
--------------------------|--------------------------|
--------------------------|--------------------------|
--7--7--9--7--7--7--9--7--|--------------------------|
--5--5--5--5--5--5--5--5--|--7--7--9--7--7--7--9--7--|
--------------------------|--5--5--5--5--5--5--5--5--|


  E  E  E  E  E  E  E  E     E  E  E  E  E  E  E  E     E  E  E  E  E  E  Q     
--------------------------|--------------------------|-------------------------|
--------------------------|--------------------------|-------------------------|
--------------------------|--------------------------|--------------------6----|
--------------------------|--7--7--9--7--7--7--9--7--|--------------------6----|
--5--5--7--5--5--5--7--5--|--5--5--5--5--5--5--5--5--|--7--7--7--7--7--7--4----|
--3--3--3--3--3--3--3--3--|--------------------------|--5--5--5--5--5--5-------|


  Q    H.              H.           Q       Q    H.            
--------------------|--------------------|--------------------|
--------------------|--------------------|--------------------|
--7-----------------|---------------6----|--7-----------------|
--7-----------------|---------------6----|--7-----------------|
--5-----------------|---------------4----|--5-----------------|
--------------------|--------------------|--------------------|


  H.           Q       Q    Q.     Q.        Q    Q.     Q.      
--------------------|---------------------|---------------------|
--------------------|---------------------|---------------------|
---------------6----|--7-----------6------|--7-----------6------|
---------------6----|--7-----------6------|--7-----------6------|
---------------4----|--5-----------4------|--5-----------4------|
--------------------|---------------------|---------------------|


  Q    H.              Q     Q     Q     Q        E  E  E  E  E  E  E  E   
--------------------|--------------------------|--------------------------|
--------------------|--------------------------|--------------------------|
--7-----------------|--------------------------|--------------------------|
--7-----------------|--7S----5S----4S----2\----|--------------------------|
--5-----------------|--------------------------|--5--5--7--5--5--5--7--5--|
--------------------|--------------------------|--3--3--3--3--3--3--3--3--|


  E  E  E  E  E  E  E  E     E  E  E  E  E  E  E  E   
--------------------------|--------------------------|
--------------------------|--------------------------|
--------------------------|--------------------------|
--------------------------|--7--7--9--7--7--7--9--7--|
--5--5--7--5--5--5--7--5--|--5--5--5--5--5--5--5--5--|
--3--3--3--3--3--3--3--3--|--------------------------|


  E  E  E  E  E  E  E  E     E  E  E  E  E  E  E  E   
--------------------------|--------------------------|
--------------------------|--------------------------|
--------------------------|--------------------------|
--7--7--9--7--7--7--9--7--|--------------------------|
--5--5--5--5--5--5--5--5--|--7--7--9--7--7--7--9--7--|
--------------------------|--5--5--5--5--5--5--5--5--|


  E  E  E  E  E  E  E  E     E  E  E  E  E  E  E  E   
--------------------------|--------------------------|
--------------------------|--------------------------|
--------------------------|--------------------------|
--------------------------|--7--7--9--7--7--7--9--7--|
--5--5--7--5--5--5--7--5--|--5--5--5--5--5--5--5--5--|
--3--3--3--3--3--3--3--3--|--------------------------|


  E  E  E  E  E  E  E  E     E  E  E  E  E  E  E  E   
--------------------------|--------------------------|
--------------------------|--------------------------|
--------------------------|--------------------------|
--------------------------|--7--7--9--7--7--7--9--7--|
--7--7--7--7--7--7--7--7--|--5--5--5--5--5--5--5--5--|
--5--5--5--5--5--5--5--5--|--------------------------|


  E  E  E  E  E  E  E  E     E  E  E  E  E  E  E  E   
--------------------------|--------------------------|
--------------------------|--------------------------|
--------------------------|--------------------------|
--7--7--9--7--7--7--9--7--|--7--7--9--7--7--7--9--7--|
--5--5--5--5--5--5--5--5--|--5--5--5--5--5--5--5--5--|
--------------------------|--------------------------|


  E  E  E  E  E  E  E  E     E  E  E  E  E  E  E  E   
--------------------------|--------------------------|
--------------------------|--------------------------|
--------------------------|--------------------------|
--7--7--9--7--7--7--9--7--|--------------------------|
--5--5--5--5--5--5--5--5--|--5--5--7--5--5--5--7--5--|
--------------------------|--3--3--3--3--3--3--3--3--|


  E  E  E  E  E  E  E  E     E  E  E  E  E  E  E  E   
--------------------------|--------------------------|
--------------------------|--------------------------|
--------------------------|--------------------------|
--------------------------|--7--7--9--7--7--7--9--7--|
--5--5--7--5--5--5--7--5--|--5--5--5--5--5--5--5--5--|
--3--3--3--3--3--3--3--3--|--------------------------|


  E  E  E  E  E  E  E  E     E  E  E  E  E  E  E  E   
--------------------------|--------------------------|
--------------------------|--------------------------|
--------------------------|--------------------------|
--7--7--9--7--7--7--9--7--|--------------------------|
--5--5--5--5--5--5--5--5--|--7--7--9--7--7--7--9--7--|
--------------------------|--5--5--5--5--5--5--5--5--|


  E  E  E  E  E  E  E  E     E  E  E  E  E  E  E  E     E  E  E  E  E  E  Q     
--------------------------|--------------------------|-------------------------|
--------------------------|--------------------------|-------------------------|
--------------------------|--------------------------|--------------------6----|
--------------------------|--7--7--9--7--7--7--9--7--|--------------------6----|
--5--5--7--5--5--5--7--5--|--5--5--5--5--5--5--5--5--|--7--7--7--7--7--7--4----|
--3--3--3--3--3--3--3--3--|--------------------------|--5--5--5--5--5--5-------|


  Q    Q.     Q.        Q    Q.     Q.        Q    H.            
---------------------|---------------------|--------------------|
---------------------|---------------------|--------------------|
--7-----------6------|--7-----------6------|--7-----------------|
--7-----------6------|--7-----------6------|--7-----------------|
--5-----------4------|--5-----------4------|--5-----------------|
---------------------|---------------------|--------------------|


  Q     Q     Q     Q        E  E  E  E  E  E  E  E   
--------------------------|--------------------------|
--------------------------|--------------------------|
--------------------------|--------------------------|
--7S----5S----4S----2\----|--------------------------|
--------------------------|--5--5--7--5--5--5--7--5--|
--------------------------|--3--3--3--3--3--3--3--3--|


  E  E  E  E  E  E  E  E     E  E  E  E  E  E  E  E   
--------------------------|--------------------------|
--------------------------|--------------------------|
--------------------------|--------------------------|
--------------------------|--7--7--9--7--7--7--9--7--|
--5--5--7--5--5--5--7--5--|--5--5--5--5--5--5--5--5--|
--3--3--3--3--3--3--3--3--|--------------------------|


  E  E  E  E  E  E  E  E     E  E  E  E  E  E  E  E   
--------------------------|--------------------------|
--------------------------|--------------------------|
--------------------------|--------------------------|
--7--7--9--7--7--7--9--7--|--------------------------|
--5--5--5--5--5--5--5--5--|--7--7--9--7--7--7--9--7--|
--------------------------|--5--5--5--5--5--5--5--5--|


  E  E  E  E  E  E  E  E     E  E  E  E  E  E  E  E   
--------------------------|--------------------------|
--------------------------|--------------------------|
--------------------------|--------------------------|
--------------------------|--7--7--9--7--7--7--9--7--|
--5--5--7--5--5--5--7--5--|--5--5--5--5--5--5--5--5--|
--3--3--3--3--3--3--3--3--|--------------------------|


  E  E  E  E  E  E  E  E     E  E  E  E  E  E  E  E   
--------------------------|--------------------------|
--------------------------|--------------------------|
--------------------------|--------------------------|
--------------------------|--7--7--9--7--7--7--9--7--|
--7--7--7--7--7--7--7--7--|--5--5--5--5--5--5--5--5--|
--5--5--5--5--5--5--5--5--|--------------------------|


  E  E  E  E  E  E  E  E     E  E  E  E  E  E  E  E   
--------------------------|--------------------------|
--------------------------|--------------------------|
--------------------------|--------------------------|
--7--7--9--7--7--7--9--7--|--7--7--9--7--7--7--9--7--|
--5--5--5--5--5--5--5--5--|--5--5--5--5--5--5--5--5--|
--------------------------|--------------------------|


  E  E  E  E  E  E  E  E     E  E  E  E  E  E  E  E   
--------------------------|--------------------------|
--------------------------|--------------------------|
--------------------------|--------------------------|
--7--7--9--7--7--7--9--7--|--------------------------|
--5--5--5--5--5--5--5--5--|--5--5--7--5--5--5--7--5--|
--------------------------|--3--3--3--3--3--3--3--3--|


  E  E  E  E  E  E  E  E     E  E  E  E  E  E  E  E   
--------------------------|--------------------------|
--------------------------|--------------------------|
--------------------------|--------------------------|
--------------------------|--7--7--9--7--7--7--9--7--|
--5--5--7--5--5--5--7--5--|--5--5--5--5--5--5--5--5--|
--3--3--3--3--3--3--3--3--|--------------------------|


  E  E  E  E  E  E  E  E     E  E  E  E  E  E  E  E   
--------------------------|--------------------------|
--------------------------|--------------------------|
--------------------------|--------------------------|
--7--7--9--7--7--7--9--7--|--------------------------|
--5--5--5--5--5--5--5--5--|--7--7--9--7--7--7--9--7--|
--------------------------|--5--5--5--5--5--5--5--5--|


  E  E  E  E  E  E  E  E     E  E  E  E  E  E  E  E   
--------------------------|--------------------------|
--------------------------|--------------------------|
--------------------------|--------------------------|
--------------------------|--7--7--9--7--7--7--9--7--|
--5--5--7--5--5--5--7--5--|--5--5--5--5--5--5--5--5--|
--3--3--3--3--3--3--3--3--|--------------------------|


  E  E  E  E  E  E  E  E       E  E  E  E  E  E  E  E   
--------------------------||---------------------------|
--------------------------||---------------------------|
--------------------------||*--------------------------|
--------------------------||*--7--7--9--7--7--7--9--7--|
--7--7--7--7--7--7--7--7--||---5--5--5--5--5--5--5--5--|
--5--5--5--5--5--5--5--5--||---------------------------|


  E  E  E  E  E  E  E  E     E  E  E  E  E  E  E  E   
--------------------------|--------------------------|
--------------------------|--------------------------|
--------------------------|--------------------------|
--7--7--9--7--7--7--9--7--|--7--7--9--7--7--7--9--7--|
--5--5--5--5--5--5--5--5--|--5--5--5--5--5--5--5--5--|
--------------------------|--------------------------|


  E  E  E  E  E  E  E  E     E  E  E  E  E  E  E  E   
--------------------------|--------------------------|
--------------------------|--------------------------|
--------------------------|--------------------------|
--7--7--9--7--7--7--9--7--|--------------------------|
--5--5--5--5--5--5--5--5--|--5--5--7--5--5--5--7--5--|
--------------------------|--3--3--3--3--3--3--3--3--|


  E  E  E  E  E  E  E  E     E  E  E  E  E  E  E  E   
--------------------------|--------------------------|
--------------------------|--------------------------|
--------------------------|--------------------------|
--------------------------|--7--7--9--7--7--7--9--7--|
--5--5--7--5--5--5--7--5--|--5--5--5--5--5--5--5--5--|
--3--3--3--3--3--3--3--3--|--------------------------|


  E  E  E  E  E  E  E  E     E  E  E  E  E  E  E  E   
--------------------------|--------------------------|
--------------------------|--------------------------|
--------------------------|--------------------------|
--7--7--9--7--7--7--9--7--|--------------------------|
--5--5--5--5--5--5--5--5--|--7--7--9--7--7--7--9--7--|
--------------------------|--5--5--5--5--5--5--5--5--|


  E  E  E  E  E  E  E  E     E  E  E  E  E  E  E  E   
--------------------------|--------------------------|
--------------------------|--------------------------|
--------------------------|--------------------------|
--------------------------|--7--7--9--7--7--7--9--7--|
--5--5--7--5--5--5--7--5--|--5--5--5--5--5--5--5--5--|
--3--3--3--3--3--3--3--3--|--------------------------|


  E  E  E  E  E  E  E  E       E  E  E  E  E  E  E  E   
---------------------------||--------------------------|
---------------------------||--------------------------|
--------------------------*||--------------------------|
--------------------------*||--7--7--9--7--7--7--9--7--|
--7--7--7--7--7--7--7--7---||--5--5--5--5--5--5--5--5--|
--5--5--5--5--5--5--5--5---||--------------------------|


  E  E  E  E  E  E  E  E     E  E  E  E  E  E  E  E   
--------------------------|--------------------------|
--------------------------|--------------------------|
--------------------------|--------------------------|
--7--7--9--7--7--7--9--7--|--7--7--9--7--7--7--9--7--|
--5--5--5--5--5--5--5--5--|--5--5--5--5--5--5--5--5--|
--------------------------|--------------------------|


  E  E  E  E  E  E  E  E     E  E  E  E  E  E  E  E   
--------------------------|--------------------------|
--------------------------|--------------------------|
--------------------------|--------------------------|
--7--7--9--7--7--7--9--7--|--------------------------|
--5--5--5--5--5--5--5--5--|--5--5--7--5--5--5--7--5--|
--------------------------|--3--3--3--3--3--3--3--3--|


  E  E  E  E  E  E  E  E     E  E  E  E  E  E  E  E   
--------------------------|--------------------------|
--------------------------|--------------------------|
--------------------------|--------------------------|
--------------------------|--7--7--9--7--7--7--9--7--|
--5--5--7--5--5--5--7--5--|--5--5--5--5--5--5--5--5--|
--3--3--3--3--3--3--3--3--|--------------------------|


  E  E  E  E  E  E  E  E     E  E  E  E  E  E  E  E   
--------------------------|--------------------------|
--------------------------|--------------------------|
--------------------------|--------------------------|
--7--7--9--7--7--7--9--7--|--------------------------|
--5--5--5--5--5--5--5--5--|--7--7--9--7--7--7--9--7--|
--------------------------|--5--5--5--5--5--5--5--5--|


  E  E  E  E  E  E  E  E     E  E  E  E  E  E  E  E   
--------------------------|--------------------------|
--------------------------|--------------------------|
--------------------------|--------------------------|
--------------------------|--7--7--9--7--7--7--9--7--|
--5--5--7--5--5--5--7--5--|--5--5--5--5--5--5--5--5--|
--3--3--3--3--3--3--3--3--|--------------------------|


  E  E  E  E  E  E  E  E     E  E  E  E  E  E  E  E   
--------------------------|--------------------------|
--------------------------|--------------------------|
--------------------------|--------------------------|
--------------------------|--7--7--9--7--7--7--9--7--|
--7--7--7--7--7--7--7--7--|--5--5--5--5--5--5--5--5--|
--5--5--5--5--5--5--5--5--|--------------------------|


  E  E  E  E  E  E  E  E     E  E  E  E  E  E  E  E   
--------------------------|--------------------------|
--------------------------|--------------------------|
--------------------------|--------------------------|
--7--7--9--7--7--7--9--7--|--7--7--9--7--7--7--9--7--|
--5--5--5--5--5--5--5--5--|--5--5--5--5--5--5--5--5--|
--------------------------|--------------------------|


  E  E  E  E  E  E  E  E     E  E  E  E  E  E  E  E   
--------------------------|--------------------------|
--------------------------|--------------------------|
--------------------------|--------------------------|
--7--7--9--7--7--7--9--7--|--------------------------|
--5--5--5--5--5--5--5--5--|--5--5--7--5--5--5--7--5--|
--------------------------|--3--3--3--3--3--3--3--3--|


  E  E  E  E  E  E  E  E     E  E  E  E  E  E  E  E   
--------------------------|--------------------------|
--------------------------|--------------------------|
--------------------------|--------------------------|
--------------------------|--7--7--9--7--7--7--9--7--|
--5--5--7--5--5--5--7--5--|--5--5--5--5--5--5--5--5--|
--3--3--3--3--3--3--3--3--|--------------------------|


  E  E  E  E  E  E  E  E     E  E  E  E  E  E  E  E   
--------------------------|--------------------------|
--------------------------|--------------------------|
--------------------------|--------------------------|
--7--7--9--7--7--7--9--7--|--------------------------|
--5--5--5--5--5--5--5--5--|--7--7--9--7--7--7--9--7--|
--------------------------|--5--5--5--5--5--5--5--5--|


                              W                           
  E  E  E  E  E  E  E  E      Q     E   E   E   E   Q     
--------------------------|--10--------------------------|
--------------------------|--10----13--10----------10----|
--------------------------|----------------12------10----|
--------------------------|--------------------12--------|
--5--5--7--5--5--5--7--5--|------------------------------|
--3--3--3--3--3--3--3--3--|------------------------------|


   Q     Q     Q     Q        W                    W                  
--------------------10----|---L----------------|---L----------------||
--------------------10----|---L----------------|---L----------------||
--------------------11----|---L----------------|---L----------------||
--12----10----11----12----|---L----------------|---L----------------||
--------10----11----12----|---L----------------|---L----------------||
---------8-----9----10----|---L----------------|---L----------------||

Gtr.2                               

     W                   W                   W                 
E||-------------------|-------------------|-------------------|
B||-------------------|-------------------|-------------------|
G||-------------------|-------------------|-------------------|
D||-------------------|-------------------|-------------------|
A||-------------------|-------------------|-------------------|
E||-------------------|-------------------|-------------------|


  W                   W                   W                   W                 
-------------------|-------------------|-------------------|-------------------|
-------------------|-------------------|-------------------|-------------------|
-------------------|-------------------|-------------------|-------------------|
-------------------|-------------------|-------------------|-------------------|
-------------------|-------------------|-------------------|-------------------|
-------------------|-------------------|-------------------|-------------------|


  W                   W                   W                   W                 
-------------------|-------------------|-------------------|-------------------|
-------------------|-------------------|-------------------|-------------------|
-------------------|-------------------|-------------------|-------------------|
-------------------|-------------------|-------------------|-------------------|
-------------------|-------------------|-------------------|-------------------|
-------------------|-------------------|-------------------|-------------------|


  W                   W                   W                   W                 
-------------------|-------------------|-------------------|-------------------|
-------------------|-------------------|-------------------|-------------------|
-------------------|-------------------|-------------------|-------------------|
-------------------|-------------------|-------------------|-------------------|
-------------------|-------------------|-------------------|-------------------|
-------------------|-------------------|-------------------|-------------------|


  W                   W                   W                   W                 
-------------------|-------------------|-------------------|-------------------|
-------------------|-------------------|-------------------|-------------------|
-------------------|-------------------|-------------------|-------------------|
-------------------|-------------------|-------------------|-------------------|
-------------------|-------------------|-------------------|-------------------|
-------------------|-------------------|-------------------|-------------------|


  W                   W                   W                   W                 
-------------------|-------------------|-------------------|-------------------|
-------------------|-------------------|-------------------|-------------------|
-------------------|-------------------|-------------------|-------------------|
-------------------|-------------------|-------------------|-------------------|
-------------------|-------------------|-------------------|-------------------|
-------------------|-------------------|-------------------|-------------------|


  W                   W                   W                   W                 
-------------------|-------------------|-------------------|-------------------|
-------------------|-------------------|-------------------|-------------------|
-------------------|-------------------|-------------------|-------------------|
-------------------|-------------------|-------------------|-------------------|
-------------------|-------------------|-------------------|-------------------|
-------------------|-------------------|-------------------|-------------------|


  W                   W                   W                   W                 
-------------------|-------------------|-------------------|-------------------|
-------------------|-------------------|-------------------|-------------------|
-------------------|-------------------|-------------------|-------------------|
-------------------|-------------------|-------------------|-------------------|
-------------------|-------------------|-------------------|-------------------|
-------------------|-------------------|-------------------|-------------------|


  W                   W                   W                   W                 
-------------------|-------------------|-------------------|-------------------|
-------------------|-------------------|-------------------|-------------------|
-------------------|-------------------|-------------------|-------------------|
-------------------|-------------------|-------------------|-------------------|
-------------------|-------------------|-------------------|-------------------|
-------------------|-------------------|-------------------|-------------------|


  W                   W                   W                   W                 
-------------------|-------------------|-------------------|-------------------|
-------------------|-------------------|-------------------|-------------------|
-------------------|-------------------|-------------------|-------------------|
-------------------|-------------------|-------------------|-------------------|
-------------------|-------------------|-------------------|-------------------|
-------------------|-------------------|-------------------|-------------------|


  W                   W                   W                   W                 
-------------------|-------------------|-------------------|-------------------|
-------------------|-------------------|-------------------|-------------------|
-------------------|-------------------|-------------------|-------------------|
-------------------|-------------------|-------------------|-------------------|
-------------------|-------------------|-------------------|-------------------|
-------------------|-------------------|-------------------|-------------------|


  W                   W                   W                   W                 
-------------------|-------------------|-------------------|-------------------|
-------------------|-------------------|-------------------|-------------------|
-------------------|-------------------|-------------------|-------------------|
-------------------|-------------------|-------------------|-------------------|
-------------------|-------------------|-------------------|-------------------|
-------------------|-------------------|-------------------|-------------------|


  W                   W                   W                   W                 
-------------------|-------------------|-------------------|-------------------|
-------------------|-------------------|-------------------|-------------------|
-------------------|-------------------|-------------------|-------------------|
-------------------|-------------------|-------------------|-------------------|
-------------------|-------------------|-------------------|-------------------|
-------------------|-------------------|-------------------|-------------------|


                                                                  W         
  W                    Q.       E    H            E   E   E   E   H         
-------------------|--------------------------|--10------------------------|
-------------------|--13b------13b---L--------|------13--10----------------|
-------------------|--------------------------|--------------12--10--------|
-------------------|--------------------------|----------------------------|
-------------------|--------------------------|----------------------------|
-------------------|--------------------------|----------------------------|


                                        W                  
   E   E   E   E   S  S  E   E   E      W                  
------------------------------------|---------------------|
------------------------------------|---------------------|
----------10------12-10-----10--12--|---Lb----------------|
--10--12------12--------12----------|---------------------|
------------------------------------|---------------------|
------------------------------------|---------------------|


                   W                            W               
   E   E   E   E   Q     E   E      E   E   E   Q.      E   E   
--------------------------------|------------------------------|
--------------------------------|------------------------------|
--12---L--10--12--10------------|----------10--10--------------|
------------------------12------|--10--12--------------12------|
----------------------------12--|--------------------------12--|
--------------------------------|------------------------------|


                                                W               
   E   E   Q      Q      E   E      E   E   E   Q.      E   E   
----------10~-----------10------|------------------------------|
-----------------13b--------13--|--10------10----------10------|
--------------------------------|------12------10----------12--|
--10--12------------------------|------------------------------|
--------------------------------|------------------------------|
--------------------------------|------------------------------|


   Q     E   Q     E   Q        E   Q     E   Q     E   E   
----------------------------|------------------------------|
--10--------10--------10----|------10--------10--------10--|
--------12--------12--------|--12--------12--------12------|
----------------------------|------------------------------|
----------------------------|------------------------------|
----------------------------|------------------------------|


   Q      Q       Q       Q          S  S  E   E   E   Q.       E     
---------------------------------|-----------------------------------|
--12b----12pb----12pb----12pb----|--12--L-10------10---L-------------|
---------------------------------|------------12--------------(12)\--|
---------------------------------|-----------------------------------|
---------------------------------|-----------------------------------|
---------------------------------|-----------------------------------|


    E   E   E   E   E   E   E   E      E   E   E   E   E   E   E   E   
-----------------------------------|----------------------------------|
-------15--15------15--15------15--|--15------15--15------15--15------|
--/16----------16----------16------|------16----------16----------16--|
-----------------------------------|----------------------------------|
-----------------------------------|----------------------------------|
-----------------------------------|----------------------------------|


   E   E   E   E   E   E   E   E      E   E   E   E  E  E  E  E   
----------------------------------|------------------------------|
--15--15--13--13--12--12--10---L--|------------------------------|
--16--16--14--14--12--12--10--11--|--11--11---9---9--7--7--5--5--|
----------------------------------|--12--12--10--10--9--9--7--7--|
----------------------------------|------------------------------|
----------------------------------|------------------------------|


                                                        W                     
  E  E  E  E  E  E  E  E     E  E  E  E  E  E  E  E     H        E  E  E  E   
--------------------------|--------------------------|-----------------------|
--------------------------|--------------------------|-----------------------|
--------7-----7--7-----7--|--7-----7--7-----7--7-----|--7--------------7--7--|
--7--9-----9--------9-----|-----9--------9--------9--|-----------7--9--------|
--------------------------|--------------------------|-----------------------|
--------------------------|--------------------------|-----------------------|


  Q    E  E  E  E  E  E     E   E  S S E  Q    E  E    
-------------------------|----------------------------|
-------------------------|----------------------------|
--L----------------7--9--|--Lb--7--9-7----7-----------|
-------9-----7--9--------|-------------9-------9--9S--|
----------9--------------|----------------------------|
-------------------------|----------------------------|


   E   E   E   S  S  E   E   E   S  S     E   E   E   S  S  E   E   E   S  S  
--------------------------------------|--------------------------------------|
------10------12-10-----10------12-10-|------10------12-10-----10------12-10-|
------10------12-10-----10------12-10-|------10------12-10-----10------12-10-|
--12------12--------12------12--------|--12------12--------12------12--------|
--------------------------------------|--------------------------------------|
--------------------------------------|--------------------------------------|


   E   E   E   Q.     Q         W                   W                 
---------------------------||--------------------|-------------------|
------10-------------------||--------------------|-------------------|
------10-------------------||*-------------------|-------------------|
--12------12---------------||*-------------------|-------------------|
--------------12-----------||--------------------|-------------------|
---------------------------||--------------------|-------------------|


  W                   W                   W                   W                 
-------------------|-------------------|-------------------|-------------------|
-------------------|-------------------|-------------------|-------------------|
-------------------|-------------------|-------------------|-------------------|
-------------------|-------------------|-------------------|-------------------|
-------------------|-------------------|-------------------|-------------------|
-------------------|-------------------|-------------------|-------------------|


  W                   W                   W                   W                 
-------------------|-------------------|-------------------|-------------------|
-------------------|-------------------|-------------------|-------------------|
-------------------|-------------------|-------------------|-------------------|
-------------------|-------------------|-------------------|-------------------|
-------------------|-------------------|-------------------|-------------------|
-------------------|-------------------|-------------------|-------------------|


  W                   W                      E   E   E   E   E   E   E   E   
-------------------|--------------------||----------------------------------|
-------------------|--------------------||--10--10--10--10--10--10--10--10--|
-------------------|-------------------*||--10--10--10--10--10--10--10--10--|
-------------------|-------------------*||----------------------------------|
-------------------|--------------------||----------------------------------|
-------------------|--------------------||----------------------------------|


   E  E  E  Q.      E  E      E   E   E   E   E   E   E   E   
--------------------------|----------------------------------|
--10----------------------|--10--10--10--10--10--10--10--10--|
--10--7-----7~---------7--|--10--10--10--10--10--10--10--10--|
---------9----------9-----|----------------------------------|
--------------------------|----------------------------------|
--------------------------|----------------------------------|


   E  E  E  Q.      E  E     E   E    E    E    E    E    E    E     
--------------------------|-----------------------------------------|
--10----------------------|-----------------------------------------|
--10--7-----7~---------7--|--9b--9pb--9pb--9pb--9pb--9pb--9pb--9pb--|
---------9----------9-----|-----------------------------------------|
--------------------------|-----------------------------------------|
--------------------------|-----------------------------------------|


  E  E  E  Q.      E  E      E   E   E   E   E   E   E   E   
-------------------------|----------------------------------|
-------------------------|--10--10--10--10--10--10--10--10--|
--9--9--7--7~---------7--|--10--10--10--10--10--10--10--10--|
-------------------9-----|----------------------------------|
-------------------------|----------------------------------|
-------------------------|----------------------------------|


   E  E  E  Q     E   E   E      E   E   E   E   E   E   E   E   
-----------------------------|----------------------------------|
--10-----------------14--14--|--14--14--14--14--12--12--12--12--|
--10--7-----7~-------14--14--|--14--14--14--14--12--12--12--12--|
---------9--------9----------|----------------------------------|
-----------------------------|----------------------------------|
-----------------------------|----------------------------------|


   E   E   E   E  E  E  E  E     E  E  E  E  E  E  E  E   
------------------------------|--------------------------|
--10--10--10--10--8--8--8--8--|--------------------------|
--11--11--11--11--9--9--9--9--|--------7-----7--7--5--7--|
------------------------------|--7--9-----9--------------|
------------------------------|--------------------------|
------------------------------|--------------------------|


  E  E  E  H         E     W                   W                 
------------------------|-------------------|-------------------|
------------------------|-------------------|-------------------|
--7--5------------------|-------------------|-------------------|
--------7--7~-----------|-------------------|-------------------|
------------------------|-------------------|-------------------|
------------------------|-------------------|-------------------|


  W                   W                   W                   W                 
-------------------|-------------------|-------------------|-------------------|
-------------------|-------------------|-------------------|-------------------|
-------------------|-------------------|-------------------|-------------------|
-------------------|-------------------|-------------------|-------------------|
-------------------|-------------------|-------------------|-------------------|
-------------------|-------------------|-------------------|-------------------|


  W                   W                   W                   W                 
-------------------|-------------------|-------------------|-------------------|
-------------------|-------------------|-------------------|-------------------|
-------------------|-------------------|-------------------|-------------------|
-------------------|-------------------|-------------------|-------------------|
-------------------|-------------------|-------------------|-------------------|
-------------------|-------------------|-------------------|-------------------|


  W                   W                   W                 
-------------------|-------------------|-------------------|
-------------------|-------------------|-------------------|
-------------------|-------------------|-------------------|
-------------------|-------------------|-------------------|
-------------------|-------------------|-------------------|
-------------------|-------------------|-------------------|


  W                  
-------------------||
-------------------||
-------------------||
-------------------||
-------------------||
-------------------||




Duration Legend
---------------
W - whole
H - half
Q - quarter
E - 8th
S - 16th
T - 32nd
X - 64th
. - note dotted
|-n-|  - n-tuplets


Tablature Legend
----------------
L - tied note
x - dead note
g - grace note
(n) - ghost note
> - accentuded note
NH - natural harmonic
AH - artificial harmonic
TH - tapped harmonic
SH - semi harmonic
PH - pitch harmonic
h - hammer on
p - pull off
b - bend
br - bendRelease
pb - preBend
pbr - preBendRelease
brb - bendReleaseBend
\n/ - tremolo bar dip
\n - tremolo bar dive
-/n - tremolo bar Release up
/n\ - tremolo bar inverted dip
/n - tremolo bar return
-\n - tremolo bar Release down
S - shift slide
s - legato slide
/ -  slide into from below or out of upwards
\ -  slide into from above or out of downwards
~ - vibrato
W - wide vibrato
tr - trill
TP - tremolo picking
T - tapping
S - slap
P - pop
< - fade in
^ - brush up
v - brush down





Comments


Popular Hurriganes tabs & chords
I Will Stay 1 Chords
It Ain't What You Do Tabs
Mary Jane Tabs
My Only One Tabs
Oh Baby Doll Tabs
Say Mama Tabs
Slippin And Slidin Tabs
Talkin 'Bout You Tabs
Tallahassee Lassie Tabs
Mister X Ukulele


Song lyrics



↑ Back to top | Tablatures and chords are parodies/interpretations of the original songs. You may use it for private study, scholarship, research or language learning purposes only
© 2014 AZChords.com Contact us | Privacy policy | DMCA | Add/correct tabs | Request tabs | Top 50 tabs