» » »

Huntingtons, Welcome Back Tabs (ver.1)

Artists:  A B C D E F G H I J K L M N O P Q R S T U V W X Y Z # 

Welcome Back Tabs (ver.1)

Huntingtons Tabs
 Rating:
4/5 (4 votes)
Welcome Back lessons Tabs too difficult? Try these video lessons and learn fast
1
                
Use power chords.

Intro
                         x4 
E -----------------------|----------------------------|
B -----------------------|----------------------------|
G -----------------------|----------------------------|
D -7-7-7-6h7-7-7-6h7-6---|-7--------------------------|
A ---------------------7-|----------------------------|
E -----------------------|----------------------------|


With these chords:

A D x2

Verse

A D x2

F# D e A G#/A(477000) F# D e

Chorus

D E F# D 

A D F# E A D A e

Solo
                         x4
E -----------------------|-------------------------------------------------|
B -----------------------|-------------------------------------------------|
G -----------------------|----------------------7-6-4-6--------------------|
D -7-7-7-6h7-7-7-6h7-6---|-7-6-4-6-----------------------------------------|
A ---------------------7-|---------7-7-7-9p7-7-7---------------------------|
E -----------------------|-------------------------------------------------|

E ----------------------------------10/12-12-12-10/12-12-12-10/12-12-12-12-|
B ----------------------7/9-9/10-10-10/12-12-12-10/12-12-12-10/12-12-12-12-|
G -----4/6-6/7-7/9-9/11----------------------------------------------------|
D -6/7---------------------------------------------------------------------|
A -------------------------------------------------------------------------|
E -------------------------------------------------------------------------|

With these chords:

A D x2

F# D e A G#/A(477000) F# D e
            
Submit corrections

comments powered by Disqus
↑ Back to top | Huntingtons Tabs for Welcome Back. Lyrics for acoustic guitar and electric guitar. 1 Tablatures and chords are parodies/interpretations of the original songs. You may use it for private study, scholarship, research or language learning purposes only