>
 >
Wanted

Wanted Guitar Tabs

Hunter Hayes - Wanted chords, tabs, tablatures, lyrics

Guitar lessons | Add/correct | Request | Top 50 tabs Artists:  A B C D E F G H I J K L M N O P Q R S T U V W X Y Z 0-9

Wanted Guitar Tabs – Hunter Hayes

CD, Sheet music, Poster

Do you like Wanted? Share with your friends now
ChordsChords v2Chords v3Chords v4Chords v5Chords v6Chords v7Chords v8Chords v9Chords v10TabsTabs v2Ukulele

Capo 5

       Em     Dsus4    C       G       Am
e|-----3-------3-------3-------3-------x-------|
B|-----3-------3-------3-------3-------1-------|
G|-----0-------0-------0-------0-------2-------|
D|-----2-------0-------2-------0-------2-------|
A|-----2-------0-------3-------2-------0-------|
E|-----0-------x-------x-------3-------x-------|



Intro:
e|--------------------------------------------------------------------|
B|--------------------------------------------------------------------|
G|---------0s7-7-2------0-2s4-4-2p0------0s7-7-2------0-2-2s4-5-4-2---|
D|-------0------------0----------------0------------0-----------------|
A|-----3------------0----------------3------------0-------------------|
E|--------------------------------------------------------------------|



You know I'd fall apart without you, I don't know how you do what you do...

e|---------3-------3-------3-------3-------3-------3-------3-------3----|
B|-----3-------3-------3-------3-------3-------3-------3-------3--------|
G|-------0---0---0---0---0---0---0---0---0---0---0---0---0---0---0---0--|
D|----------------------------------------------------------------------|
A|-----3-----2---------0-----2---------3-----2---------0----------------|
E|-----------------------------------------------------------3----------|


'Cause everything that don't make sense about me, Makes sense when I'm with you...
e|---------3-------3-------3-------3-------3-------3-------3------------|
B|-----3-------3-------3-------3-------3-------3-------3-------3---0----|
G|-------0---0---0---0---0---0---0---0---0---0---0---0---0---0---0---2--|
D|----------------------------------------------------------------------|
A|-----3-----2---------0-----2---------3-----2---------0----------------|
E|-----------------------------------------------------------3----------|


Like everything that's green, girl I need you, But it's more than one and one makes two...
e|---------3-------3-------3-------3-------3-------3-------3------------|
B|-----3-------3-------3-------3-------3-------3-------3-------3---0----|
G|-------0---0---0---0---0---0---0---0---0---0---0---0---0---0---0---2--|
D|----------------------------------------------------------------------|
A|-----3-----2---------0-----2---------3-----2---------0----------------|
E|-----------------------------------------------------------3----------|


Put aside the math and the logic of it, You gotta know you're wanted too...

e|---------3-------3-------3-------3-------3-------3-------3------------|
B|-----3-------3-------3-------3-------3-------3-------3----------------|
G|-------0---0---0---0---0---0---0---0---0---0---0---0---0---0----------|
D|----------------------------------------------------------------------|
A|-----3-----2---------0-----2---------3-----2---------0----------------|
E|-----------------------------------------------------------3----------|


                Em    Dsus4 
'Cause I wanna wrap you up
       C       G
Wanna kiss your lips
 Em   Dsus4            C     G
I wanna make you feel wanted
             Em    Dsus4
And I wanna call you mine
       C      G          Em
Wanna hold your hand forever
   Dsus4            C   G
Never let you forget it
       Em  Dsus4              C
Yeah, I wanna make you feel wanted


e|--------------------------------------|
B|--------------------------------------|
G|---------0s7-7-2------0-2-2s4-5-4-2---|
D|-------0------------0-----------------|
A|-----3------------0-------------------|
E|--------------------------------------|


Anyone can tell you you're pretty, You get that all the time, I know you do...
e|-----3-3---3-----3-3---3-----3-3---3-----3-3---3----------------|
B|-----3-3---3-----3-3---3-----3-3---3-----3-3---3----------------|
G|-----0-0---0-----0-0---0-----0-0---0-----0-0---0----------------|
D|-----0-0---0-----0-0---0-----0-0---0-----0-0---0----------------|
A|-----3-3---2-----0-0---2-----3-3---2-----0-0---2----------------|
E|-----x-x---x-----x-x---x-----x-x---x-----x-x---3----------------|


But your beauty's deeper than the makeup, And I wanna show you what I see tonight, When I....
e|-----3-3---3-----3-3---3-----3-3---3-----3-3---3----3-----------|
B|-----3-3---3-----3-3---3-----3-3---3-----3-3---3----3-----------|
G|-----0-0---0-----0-0---0-----0-0---0-----0-0---0----0-----------|
D|-----0-0---0-----0-0---0-----0-0---0-----0-0---0----0-----------|
A|-----3-3---2-----0-0---2-----3-3---2-----0-0---2----2-----------|
E|-----x-x---x-----x-x---x-----x-x---x-----x-x---3----3-2---------|



    Em    Dsus4 
...Wrap you up
        C       G
When I kiss your lips
 Em   Dsus4            C     G
I wanna make you feel wanted
             Em    Dsus4
And I wanna call you mine
       C      G          Em
Wanna hold your hand forever
   Dsus4            C   G
Never let you forget it
       Em  Dsus4              C        Am
Baby, I wanna make you feel wanted



                             Em
As good as you make me feel
                         C    G   Am
I wanna make you feel better
                             Em
Better than your fairy tales
                             C
Better than your best dreams
                               Dsus4
You're more than everything I need

You're all I ever...




     Wanted...          All I ever wanted...

e|----3--3--3--3--3--3--3--3--2--2--2--2--0-----------------|
B|----3--3--3--3--3--3--3--3--3--3--3--3--1----7----7s8-----|
G|----------------------------------------------------------|
D|----------------------------------------------------------|
A|----------------------------------------------------------|
E|----------------------------------------------------------|


And I just wanna...



    Em    Dsus4 
...Wrap you up
       C       G
Wanna kiss your lips
 Em   Dsus4            C     G
I wanna make you feel wanted
             Em    Dsus4
And I wanna call you mine
       C      G          Em
Wanna hold your hand forever
   Dsus4            C   G
Never let you forget it
       Em  Dsus4              C      G
Yeah, I wanna make you feel wanted
       Em    Dsus4           C
Baby I, I wanna make you feel wanted




e|---------------------------------------------------------------------|
B|---------------------------------------------------------------------|
G|---------0s7-7-2------0-2s4-4-2p0------0s7-7-2------0-2--2h4---------|
D|-------0------------0----------------0------------0------0-----------|
A|-----3------------0----------------3------------0--------2-----------|
E|---------------------------------------------------------3-----------|





Comments


Popular Hunter Hayes tabs & chords
All You Ever Chords
Cant Say Love Chords
If You Told Me To Chords
Love Makes Me Chords
Somebodys Heartbreak 5 Chords
Storm Warning 1 Chords
Wanted 1 Chords
Cry With You Intro Tabs
Somebodys Heartbreak Tabs
I Want Crazy Ukulele


Song lyrics



↑ Back to top | Tablatures and chords are parodies/interpretations of the original songs. You may use it for private study, scholarship, research or language learning purposes only
© 2014 AZChords.com Contact us | Privacy policy | DMCA | Add/correct tabs | Request tabs | Top 50 tabs