» » »

Hungry Kids Of Hungary, Scattered Diamonds Tabs (ver.1)

Artists:  A B C D E F G H I J K L M N O P Q R S T U V W X Y Z # 

Scattered Diamonds Tabs (ver.1)

Hungry Kids Of Hungary Tabs
Rating:
5/5 (4 votes)
Scattered Diamonds lessons Tabs too difficult? Try these video lessons and learn fast
                Hungry Kids Of Hungary
Mega Mountain EP

Pretty easy song, shouldn't be too hard.
Hope you enjoy :D

Standard Tuning EADGBe

Introduction 
e|------------------------------------------------------------------|
B|--9-9---9-9---9-9---9-9-x-7-7-------------------------------------|
G|--9-9---9-9---9-9---9-9-x-8-8-------------------------------------|
D|--9-9---9-9---9-9-------------------------------------------------|
A|--7-7---7-7---7-7-------------------------------------------------|
E|------------------------------------------------------------------|

e|------------------------------------------------------------------|
B|--9-9---9-9---9-9---9-9-x-7-7-------------------------------------|
G|--9-9---9-9---9-9---9-9-x-8-8-------------------------------------|
D|--9-9---9-9---9-9-------------------------------------------------|
A|--7-7---7-7---7-7-------------------------------------------------|
E|------------------------------------------------------------------|

e|------------------------------------------------------------------|
B|--9-9---9-9---9-9---9-9-x-7-7-------------------------------------|
G|--9-9---9-9---9-9---9-9-x-8-8-------------------------------------|
D|--9-9---9-9---9-9-------------------------------------------------|
A|--7-7---7-7---7-7-------------------------------------------------|
E|------------------------------------------------------------------|

e|------------------------------------------------------------------|
B|--9-9---9-9---9-9---9-9-x-7-7-------------------------------------|
G|--9-9---9-9---9-9---9-9-x-8-8-------------------------------------|
D|--9-9---9-9---9-9-------------------------------------------------|
A|--7-7---7-7---7-7-------------------------------------------------|
E|------------------------------------------------------------------|

Verse
e|------------------------------------------------------------------|
B|--9-9---9-9---9-9---9-9-x-7-7-------------------------------------|
G|--9-9---9-9---9-9---9-9-x-8-8-------------------------------------|
D|--9-9---9-9---9-9-------------------------------------------------|
A|--7-7---7-7---7-7-------------------------------------------------|
E|------------------------------------------------------------------|

e|------------------------------------------------------------------|
B|--9-9---9-9---9-9---9-9-x-7-7-------------------------------------|
G|--9-9---9-9---9-9---9-9-x-8-8-------------------------------------|
D|--9-9---9-9---9-9-------------------------------------------------|
A|--7-7---7-7---7-7-------------------------------------------------|
E|------------------------------------------------------------------|

e|--5-5---5-5---5-5-------------------------------------------------|
B|--5-5---5-5---5-5---9-9-x-7-7-------------------------------------|
G|--6-6---6-6---6-6---9-9-x-8-8-------------------------------------|
D|--7-7---7-7---7-7-------------------------------------------------|
A|--7-7---7-7---7-7-------------------------------------------------|
E|--5-5---5-5---5-5-------------------------------------------------|

e|------------------------------------------------------------------|
B|--9-9---9-9---9-9---9-9-x-7-7-------------------------------------|
G|--9-9---9-9---9-9---9-9-x-8-8-------------------------------------|
D|--9-9---9-9---9-9-------------------------------------------------|
A|--7-7---7-7---7-7-------------------------------------------------|
E|------------------------------------------------------------------|

Verse 2

e|------------------------------------------------------------------|
B|--9-9---9-9---9-9---9-9-x-7-7-------------------------------------|
G|--9-9---9-9---9-9---9-9-x-8-8-------------------------------------|
D|--9-9---9-9---9-9-------------------------------------------------|
A|--7-7---7-7---7-7-------------------------------------------------|
E|------------------------------------------------------------------|
e|------------------------------------------------------------------|
B|--9-9---9-9---9-9---9-9-x-7-7-------------------------------------|
G|--9-9---9-9---9-9---9-9-x-8-8-------------------------------------|
D|--9-9---9-9---9-9-------------------------------------------------|
A|--7-7---7-7---7-7-------------------------------------------------|
E|------------------------------------------------------------------|

e|--5-5---5-5---5-5-------------------------------------------------|
B|--5-5---5-5---5-5---9-9-x-7-7-------------------------------------|
G|--6-6---6-6---6-6---9-9-x-8-8-------------------------------------|
D|--7-7---7-7---7-7-------------------------------------------------|
A|--7-7---7-7---7-7-------------------------------------------------|
E|--5-5---5-5---5-5-------------------------------------------------|

e|------------------------------------------------------------------|
B|--9-9---9-9---9-9---9-9-x-7-7-------------------------------------|
G|--9-9---9-9---9-9---9-9-x-8-8-------------------------------------|
D|--9-9---9-9---9-9-------------------------------------------------|
A|--7-7---7-7---7-7-------------------------------------------------|
E|------------------------------------------------------------------|

e|--5-5---5-5---5-5-------------------------------------------------|
B|--5-5---5-5---5-5---9-9-x-7-7-------------------------------------|
G|--6-6---6-6---6-6---9-9-x-8-8-------------------------------------|
D|--7-7---7-7---7-7-------------------------------------------------|
A|--7-7---7-7---7-7-------------------------------------------------|
E|--5-5---5-5---5-5-------------------------------------------------|

e|------------------------------------------------------------------|
B|--9-9---9-9---9-9---9-9-x-7-7-------------------------------------|
G|--9-9---9-9---9-9---9-9-x-8-8-------------------------------------|
D|--9-9---9-9---9-9-------------------------------------------------|
A|--7-7---7-7---7-7-------------------------------------------------|
E|------------------------------------------------------------------|

Chorus

e|--7-7---7-7---5-5---5-5-------------------------------------------|
B|--7-7---7-7---5-5---5-5-------------------------------------------|
G|--8-8---8-8---6-6---6-6-------------------------------------------|
D|--9-9---9-9---7-7---7-7-------------------------------------------|
A|--9-9---9-9---7-7---7-7-------------------------------------------|
E|--7-7---7-7---5-5---5-5-------------------------------------------|

e|--7-7---7-7---5-5---5-5-------------------------------------------|
B|--7-7---7-7---5-5---5-5-------------------------------------------|
G|--8-8---8-8---6-6---6-6-------------------------------------------|
D|--9-9---9-9---7-7---7-7-------------------------------------------|
A|--9-9---9-9---7-7---7-7-------------------------------------------|
E|--7-7---7-7---5-5---5-5-------------------------------------------|

e|--7-7---7-7---5-5---5-5-------------------------------------------|
B|--7-7---7-7---5-5---5-5-------------------------------------------|
G|--8-8---8-8---6-6---6-6-------------------------------------------|
D|--9-9---9-9---7-7---7-7-------------------------------------------|
A|--9-9---9-9---7-7---7-7-------------------------------------------|
E|--7-7---7-7---5-5---5-5-------------------------------------------|


e|------------------------------------------------------------------|
B|--9-9---9-9---9-9---9-9-x-7-7-------------------------------------|
G|--9-9---9-9---9-9---9-9-x-8-8-------------------------------------|
D|--9-9---9-9---9-9-------------------------------------------------|
A|--7-7---7-7---7-7-------------------------------------------------|
E|------------------------------------------------------------------|



e|------------------------------------------------------------------|
B|--9-9---9-9---9-9---9-9-x-7-7-------------------------------------|
G|--9-9---9-9---9-9---9-9-x-8-8-------------------------------------|
D|--9-9---9-9---9-9-------------------------------------------------|
A|--7-7---7-7---7-7-------------------------------------------------|
E|------------------------------------------------------------------|

Verse 3
e|------------------------------------------------------------------|
B|--9-9---9-9---9-9---9-9-x-7-7-------------------------------------|
G|--9-9---9-9---9-9---9-9-x-8-8-------------------------------------|
D|--9-9---9-9---9-9-------------------------------------------------|
A|--7-7---7-7---7-7-------------------------------------------------|
E|------------------------------------------------------------------|

e|------------------------------------------------------------------|
B|--9-9---9-9---9-9---9-9-x-7-7-------------------------------------|
G|--9-9---9-9---9-9---9-9-x-8-8-------------------------------------|
D|--9-9---9-9---9-9-------------------------------------------------|
A|--7-7---7-7---7-7-------------------------------------------------|
E|------------------------------------------------------------------|

e|--5-5---5-5---5-5-------------------------------------------------|
B|--5-5---5-5---5-5---9-9-x-7-7-------------------------------------|
G|--6-6---6-6---6-6---9-9-x-8-8-------------------------------------|
D|--7-7---7-7---7-7-------------------------------------------------|
A|--7-7---7-7---7-7-------------------------------------------------|
E|--5-5---5-5---5-5-------------------------------------------------|

e|------------------------------------------------------------------|
B|--9-9---9-9---9-9---9-9-x-7-7-------------------------------------|
G|--9-9---9-9---9-9---9-9-x-8-8-------------------------------------|
D|--9-9---9-9---9-9-------------------------------------------------|
A|--7-7---7-7---7-7-------------------------------------------------|
E|------------------------------------------------------------------|

e|--5-5---5-5---5-5-------------------------------------------------|
B|--5-5---5-5---5-5---9-9-x-7-7-------------------------------------|
G|--6-6---6-6---6-6---9-9-x-8-8-------------------------------------|
D|--7-7---7-7---7-7-------------------------------------------------|
A|--7-7---7-7---7-7-------------------------------------------------|
E|--5-5---5-5---5-5-------------------------------------------------|

e|------------------------------------------------------------------|
B|--9-9---9-9---9-9---9-9-x-7-7-------------------------------------|
G|--9-9---9-9---9-9---9-9-x-8-8-------------------------------------|
D|--9-9---9-9---9-9-------------------------------------------------|
A|--7-7---7-7---7-7-------------------------------------------------|
E|------------------------------------------------------------------|

Verse 4
e|------------------------------------------------------------------|
B|--9-9---9-9---9-9---9-9-x-7-7-------------------------------------|
G|--9-9---9-9---9-9---9-9-x-8-8-------------------------------------|
D|--9-9---9-9---9-9-------------------------------------------------|
A|--7-7---7-7---7-7-------------------------------------------------|
E|------------------------------------------------------------------|

e|------------------------------------------------------------------|
B|--9-9---9-9---9-9---9-9-x-7-7-------------------------------------|
G|--9-9---9-9---9-9---9-9-x-8-8-------------------------------------|
D|--9-9---9-9---9-9-------------------------------------------------|
A|--7-7---7-7---7-7-------------------------------------------------|
E|------------------------------------------------------------------|





e|--5-5---5-5---5-5-------------------------------------------------|
B|--5-5---5-5---5-5---9-9-x-7-7-------------------------------------|
G|--6-6---6-6---6-6---9-9-x-8-8-------------------------------------|
D|--7-7---7-7---7-7-------------------------------------------------|
A|--7-7---7-7---7-7-------------------------------------------------|
E|--5-5---5-5---5-5-------------------------------------------------|

e|------------------------------------------------------------------|
B|--9-9---9-9---9-9---9-9-x-7-7-------------------------------------|
G|--9-9---9-9---9-9---9-9-x-8-8-------------------------------------|
D|--9-9---9-9---9-9-------------------------------------------------|
A|--7-7---7-7---7-7-------------------------------------------------|
E|------------------------------------------------------------------|

e|--5-5---5-5---5-5-------------------------------------------------|
B|--5-5---5-5---5-5---9-9-x-7-7-------------------------------------|
G|--6-6---6-6---6-6---9-9-x-8-8-------------------------------------|
D|--7-7---7-7---7-7-------------------------------------------------|
A|--7-7---7-7---7-7-------------------------------------------------|
E|--5-5---5-5---5-5-------------------------------------------------|

e|------------------------------------------------------------------|
B|--9-9---9-9---9-9---9-9-x-7-7-------------------------------------|
G|--9-9---9-9---9-9---9-9-x-8-8-------------------------------------|
D|--9-9---9-9---9-9-------------------------------------------------|
A|--7-7---7-7---7-7-------------------------------------------------|
E|------------------------------------------------------------------|


Bridge


e|------------------------------------------------------------------|
B|------------------------------------7-9---------------------------|
G|--------------------9---9-----9---9-------------------------------|
D|------9------------9------9-----9---------------------------------|
A|---/7----11-9-7---7---7-----7-------------------------------------|
E|------------------------------------------------------------------|

e|------------------------------------------------------------------|
B|--------------------------------8---8-8---8-8---------------------|
G|--------------------------------9---9-9---9-9---------------------|
D|----9---------------------------7---7-7---7-7---------------------|
A|-/7---11-9-7----7-x-9-x-10-x----7---7-7---7-7---------------------|
E|----------------5-x-5-x-5--x--------------------------------------|

e|------------------------------------------------------------------|
B|------------------------------------------------------------------|
G|------------------------------------------------------------------|
D|----9-------------------------------------------------------------|
A|-/7---11-9-7---0-4-5-4h5-4-5-4-0----------------------------------|
E|------------------------------------------------------------------|

e|------------------------------------------------------------------|
B|------------------------------------------------------------------|
G|---------------9-9-x-8-8-x-6-6-x-4-4-x----------------------------|
D|----9----------9-9-x-8-8-x-6-6-x-4-4-x----------------------------|
A|-/7---11-9-7---7-7-x-6-6-x-4-4-x-2-2-x----------------------------|
E|------------------------------------------------------------------|

Chorus
e|--7-7---7-7---5-5---5-5-------------------------------------------|
B|--7-7---7-7---5-5---5-5-------------------------------------------|
G|--8-8---8-8---6-6---6-6-------------------------------------------|
D|--9-9---9-9---7-7---7-7-------------------------------------------|
A|--9-9---9-9---7-7---7-7-------------------------------------------|
E|--7-7---7-7---5-5---5-5-------------------------------------------|

e|--7-7---7-7---5-5---5-5-------------------------------------------|
B|--7-7---7-7---5-5---5-5-------------------------------------------|
G|--8-8---8-8---6-6---6-6-------------------------------------------|
D|--9-9---9-9---7-7---7-7-------------------------------------------|
A|--9-9---9-9---7-7---7-7-------------------------------------------|
E|--7-7---7-7---5-5---5-5-------------------------------------------|

e|--7-7---7-7---5-5---5-5-------------------------------------------|
B|--7-7---7-7---5-5---5-5-------------------------------------------|
G|--8-8---8-8---6-6---6-6-------------------------------------------|
D|--9-9---9-9---7-7---7-7-------------------------------------------|
A|--9-9---9-9---7-7---7-7-------------------------------------------|
E|--7-7---7-7---5-5---5-5-------------------------------------------|

Outro
e|------------------------------------------------------------------|
B|--9-9---9-9---9-9---9-9-x-7-7-------------------------------------|
G|--9-9---9-9---9-9---9-9-x-8-8-------------------------------------|
D|--9-9---9-9---9-9-------------------------------------------------|
A|--7-7---7-7---7-7-------------------------------------------------|
E|------------------------------------------------------------------|

e|------------------------------------------------------------------|
B|--9-9---9-9---9-9---9-9-x-7-7-------------------------------------|
G|--9-9---9-9---9-9---9-9-x-8-8-------------------------------------|
D|--9-9---9-9---9-9-------------------------------------------------|
A|--7-7---7-7---7-7-------------------------------------------------|
E|------------------------------------------------------------------|

e|------------------------------------------------------------------|
B|--9-9---9-9---9-9---9-9-x-7-7-------------------------------------|
G|--9-9---9-9---9-9---9-9-x-8-8-------------------------------------|
D|--9-9---9-9---9-9-------------------------------------------------|
A|--7-7---7-7---7-7-------------------------------------------------|
E|------------------------------------------------------------------|

e|------------------------------------------------------------------|
B|--9-9---9-9---9-9---9-9-x-7-7-------------------------------------|
G|--9-9---9-9---9-9---9-9-x-8-8-------------------------------------|
D|--9-9---9-9---9-9-------------------------------------------------|
A|--7-7---7-7---7-7-------------------------------------------------|
E|------------------------------------------------------------------|


And there it is. 
            

comments powered by Disqus
↑ Back to top | Hungry Kids Of Hungary Tabs for Scattered Diamonds. Lyrics for acoustic guitar and electric guitar. Tablatures and chords are parodies/interpretations of the original songs. You may use it for private study, scholarship, research or language learning purposes only