» » »

Walk On Gilded Splinters Tabs (ver.1)

Artists:  A B C D E F G H I J K L M N O P Q R S T U V W X Y Z # 

Walk On Gilded Splinters Tabs (ver.1)

Humble Pie
Rating:
0/5 (0 votes)

Hard to play? Try these video lessons and learn fast.
                Band: Humble Pie

p= pull off
h= hammer on
^= bend, and in this case, a full bend
/= slide

I believe Frampton solos in E Dorian. This is what I use. Frampton used the Dorian all
time to blend Jazz and Blues becasue that's his style, a mix of jazz and blues. You can
the E minor pentatonic scale too, it just have some of the notes in the Dorian scale 
Frampton uses, but it works equally well.

e :----2-----3---3-2p0-2----2--3--5--7-7-9-9-10-10-12-----|
B :------0---------------0----------------------------0---|
G :----------------------------------------------------0--|
D :2---2-----5---5-2-- 2----2--5--7--9-9-111112-12-14-----|
A :-------------------------------------------------------|
E :-------------------------------------------------------|

e :----3-----3-------10----10----10--3----3--10--10-------|
B :---3------3-------10----10----10--3----3--10--10-------|
G :--0---------------------------9---0----0---------------|
D :-2----2-2-2--2-2--9-----9-----9---2----2--9---9--------|
A :-------------------------------------------------------|
E :---------------------00----00---00---00-00--00---------|

e :------------------------------------------------------|
B :-----2----2----2----2---------------------------------|
G :----4----4----4----4----------------------------------|
D :---4----4----4----3-----------------------------------|
A :-----------------------1/2----------------------------|
E :--4----3----2----1------------------------------------|

Chords after Intro:
e :------------------------------------------------------------------|
B :------0--------------0---------------0--------------0-------------|
G :----0---0---0------0---0---0-------0---0---0------0---0---0-------|
D :--4-------4------4-------4-------4-------4------4-------4---------|
A :-2-------------3---------------4--------------3-------------------|
E :------------------------------------------------------------------|

Or:
e :------------------------------------------------------|
B :-----0--------0-------0-------0-----------------------|
G :---0--0--0---0-0--0--0-0--0--0-0---0------------------|
D :--4----4----5---5---5---5---5---5---------------------|
A :-2------2--3-----3-4-----4-3-----3--------------------|
E :------------------------------------------------------|

Heavier part with same chords: Compensate here if the 2nd ver. of after intro chords
more like the album.
e :-----------------------------------------------|
B :-0-0-0-0-0---0-0--------0-0--------0-----------|
G :-0-0-0-0-0---0-0--------0-0--------0-----------|
D :-4-4-4-4-4---4-4-----4--4-4-----4--4-----------|
A :-2-2-2-2-2---3-3-3p2-3--4-4-4p2-4--2-----------|
E :-----------------------------------------------|

Harmony Lines: I believe Steve plays the low Harmony, and Frampton plays the high
There are variations on this through out the song.
e :------------------------------------------------------|
B :-12--10—10h12—12p10/8-10-8-8h10-10^-10p8p7--8-7-7h8---| High Harmony
G :------------------------------------------------------|
D :-12--11-11h12-12p11/9-11-9-9h11-12—-11p9p7--9-8-8h9---| Low Harmony
A :------------------------------------------------------|
E :------------------------------------------------------|

e :-------------------------------------------------------|
B :-8^-8p7p5-7-5------------------------------------------| High Harmony
G :--------------7----------------------------------------|
D :11—-9p7p5-7-5------------------------------------------| Low Harmony
A :--------------9----------------------------------------|
E :-------------------------------------------------------|


Main Riff:
e :------------------------------------------------------|
B :------------------------------------------------------|
G :-----------99999999-----------------------------------|
D :-----------99999999-----------------------------------|
A :-7----5-7--77777777-----------------------------------|
E :-0--7---0--00000000-----------------------------------|

Chord jam in the middle of Frampton's solo near end. Starts around 17:01
e :---------------3-3-3-------------------------------------|
B :---------------3-3-3-------------------------------------|
G :-1-------------0-0-0---2-2-2-----------------------------|
D :-2-------------0-0-0---2-2-2-----------------------------|
A :-2---------------------0-0-0-----------------------------|
E :-0-000000------3-3-3-------------------------------------|

e :------------------------------------------------------|
B :------------------------------------------------------|
G :------------------------------------------------------|
D :------------------------------------------------------|
A :------------------------------------------------------|
E :------------------------------------------------------|


Pack my Leavin' Trunk part:
e :------------------------------------------------------|
B :------------------------------------------------------|
G :-/-99999----------------------------------------------|   X4
D :-/-99999---99-88-77-55--------------------------------|
A :-/-77777---99-88-77-55--------------------------------|
E :-----------77-66-55-33--------------------------------|

e :------------------------------------------------------|
B :------------------------------------------------------|
G :------------------------------------------------------|   X2
D :-77777--7--7---5-7------------------------------------|
A :-00000-0--0--7----------------------------------------|
E :------------------------------------------------------|

e :------------------------------------------------------|
B :------------------------------------------------------|
G :------------------------------------------------------|  X2
D :------------------------------------------------------|
A :-77777--7--7---5-7------------------------------------|
E :-00000-0--0--7----------------------------------------|

e :------------------------------------------------------|
B :------------------------------------------------------|
G :------------------------------------------------------|
D :-99999---9-9---7-9----77777---7-7---5-7---------------|
A :-------------9--------00000--0-0--7-------------------|
E :-77777--7-7-------------------------------------------|

e :------------------------------------------------------|
B :------------------------------------------------------|
G :------------------------------------------------------|
D :------------------------------------------------------|
A :-77777---7-7---5-7------------------------------------|
E :-00000--0-0--7----------------------------------------|


Back to main riff, then harmony lines, then end of the song.
            
Hard to play? Try these video lessons and learn fast. | Correct




comments powered by Disqus
↑ Back to top | Tablatures and chords are parodies/interpretations of the original songs. You may use it for private study, scholarship, research or language learning purposes only