>
 >
Take Me Back

Take Me Back Guitar Tabs

Humble Pie - Take Me Back chords, tabs, tablatures, lyrics

Guitar lessons | Add/correct | Request | Top 50 tabs Artists:  A B C D E F G H I J K L M N O P Q R S T U V W X Y Z 0-9

Take Me Back Guitar Tabs – Humble Pie

CD, Sheet music, Poster

Do you like Take Me Back? Share with your friends now
ChordsTabsUkulele
TAKE ME BACK
같같같같같같같같같같같같같
writtten by Peter Frampton

Intro:
					       
E---------0--0--0--0--0---0---0---0----0----
B---------7--5--7--9--10--12--10-14---12---               
G---------0--0--0--0--0---0---0---0----0----   		
D---------0--0--0--0--0---0---0---0----0---- repeat last 3 chords  
A----2----5--3-5-7--8---10--8--12---10---  		
E--3----------------------------------------
		
 (the 1st 2 notes are bass notes,) then 2 finger chords, 
  the verse pattern is half the intro plus these chords

(verse pattern)
           D    C       Dm               Asus4         G     D   G
E----------0----0-------0----------------0-------------3-----x---3---
B----------7----5-------3----------------3-------------0-----0---0---             
G----------0----0-------2----------------0-------------0-----2---0---   
D----------0----0-------3----------------2-------------0---------0---	
A-------2--5---3-------0------------------------------2---------2---		
E--3---------------------------------------------------3---------3---  
   Take me back where I come from, all I need, feeling blue


                       D    C     Dm            Asus4               G
E----------------------0----0-----0-------------0-------------------3--
B----------------------7----5-----3-------------3-------------------0--    
G----------------------0----0-----2-------------0-------------------0--
D----------------------0----0-----3-------------2-------------------0--
A--------------2------5----3-----0-------------0-------------------2--
E0-1-2-3-----------------------------------------------------------3--
        Friends that I made in my youth, now I뭢 older I love them more


    D                                     D5
E---x-------------------------------------0---------------------
B---0-------------------------------------3---------------------
G---2------------------2------2-----------2---------------------             
D---------------------------------------------------------------
A---------------------------------------------------------------
E-------3--0--1--2--3------3-------3--0-------------------------
                                          moon shines bright above


		          C  D  C   G         Em
E------------------------0--0--0---3------------------------------		
B------------------------5--7--5---0----------0-------------------               
G------------------------0--0--0-- 0----------0------------------- 
D------------------------0--0--0---0----------2-------------------
A-------------------2---3--5--3---2----------2-------------------
E------------------3---------------3-----32--0-------------------
  never seems to change                          Ever smiling face,        

                 C      Dm         C  D  C       Dm           
E----------------0------0----------0--0-0-------0--------	
B----------------3------3----------5--7-5-------3--------               
G----------------0------2----------0--0-0-------2-------- 
D----------------2------3----------0--0-0-------3--------
A---------------3------0--------2-3--5--3-------0--------
E----------------0--------------3-------------------------
    no one asks why             Everyone wanted his soul

           Asus4
E----------0-----------------------------------------------------------
B----------3-----------------------------------------------------------               
G----------0-----------------------------------------------------------
D----------2-----------------------------------------------------------
A----------0----------------------------1-31---------------1-3-1-----
E-------------------------3-3-3-1-2-3-3-3-----3-3-3-1-2-3-3-3-------3--
   All he gave them was a smile



People can change overnight
You most of all, yeah that's right
Find yourself on the ground
Where you been?
What have you found?
Yeah, now you know the score
Never want no more     
Keep yourself in your own mind
Can you believe what I say
That I'm glad, feeling sad
 
Em                     C
I'm feeling awful cold

I've just been bought and sold
 Dm
In my eyes you'll see
 Asus4
The sign of fear


solo over complete verse pattern
 
  D5
Take me back to see
What I left behind, yeah
Ooh, superficial people told him where to go
Everyone wanted his soul
All he gave them was a smile, oh



All played in normal pitch.
Play out with the last 3 intro chords on the main riff.
There are 2 guitars in this song, these are just the 
chords and a little riff thrown in for good measure. 
You can expand on these chords by exploiting the other 
guitar parts.
Play along with the song and it should make sense. There
is probably a lot missing and it is very dependant on a 
slight of hand strumming. Good Luck
 
Yes!뀉꿻hose guys could play, 뀉꿲an.





Comments


Popular Humble Pie tabs & chords
The Fixer Bass Tabs
30 Days In The Hole Chords
Down Home Again Chords
Home And Away Chords
Hot 'n Nasty Chords
I Don't Need No Doctor Chords
Earth And Water Song Tabs
Stone Cold Fever Tabs
Up Your Sleeves Tabs
Take Me Back Ukulele


Song lyrics



↑ Back to top | Tablatures and chords are parodies/interpretations of the original songs. You may use it for private study, scholarship, research or language learning purposes only
© 2014 AZChords.com Contact us | Privacy policy | DMCA | Add/correct tabs | Request tabs | Top 50 tabs