» » »

Sweet Peace And Time Tabs (ver.1)

Artists:  A B C D E F G H I J K L M N O P Q R S T U V W X Y Z # 

Sweet Peace And Time Tabs (ver.1)

Humble Pie
Rating:
0/5 (0 votes)

Hard to play? Try these video lessons and learn fast.
                
(RIFF BASE)
e------------------------------------|
B------------------------------------|
G--22---5--7~-----77-----5---2~------|
D--22---5--7~-----77-----5---2~------|
A-------3--5------55-----3---0~------|
E------------------------------------|


(REF)
e-------------------------------------|
B-------------------------------------|
G---7-5---5-7---7-5-------------------|
D---7-5---5-7---7-5---5-7~------------|
A---5-3---3-5---5-3---5-7~------------|
E---------------------3-5~------------|

(DOWN)
e-------------------------------------|
B-------------------------------------|
G-------------------------------------|
D--2--0-------------------------------|
A--------2~-----0---------------------|
E-------------------3--0~-------------|


(INTER)
e-------------------------------------------------------------------------|
B-------------------------------------------------------------------------|
G----9-9~------9-9~-------9~-------------7-7~-------7-7~-------7~---------|
D--7-9-9~----7-9-9~----7--9~-------------7-7~-------7-7~-------7~---------|
A-9--------9---------9---------------7-9--------7-9--------7-9------------|
E-------------------------------------------------------------------------|


(RIFF BASE) 4x

(RIFF BASE)
Don't want war, no
Don't give me preachin'
Don't want love
No fancy teachin'
All I want's

(REF)
Sweet peace and time
Wake up my mind

(Bm) 2x

(Bm)
Woman of my heart
Let me live again
Oh, why am I so lonely?
Let me live again
All I want to do is find the people
Who'll ease my soul

(CAIDA) + E ROOT Solo 1 time    4x

(INTER)

A  2x

(RIFF BASE)   2x

(RIFF BASE)
Don't want Mars
Don't want plaided suits
No one flies there
No more army boots

E ROOT Solo   4x

A ROOT Solo   2x

(RIFF BASE)
Don't want lies
Don't give me Ho Chi Minh
Don't want time
Don't want no schemin'
All I want's

(REF)
Sweet peace and time
Wake up my mind


(Bm) 2x

(Bm)
Woman of my heart
Let me breathe again
Here I am alone
So I can live again
All I want to find is something
To ease my soul

(DOWN) + E ROOT Solo 1 time    4x

(INTER)

(RIFF BASE)   2x

(RIFF BASE)
Don't want lies
Don't want Ho Chi Minh
Don't want time
Don't want schemin'
All I want's

(REF)
Sweet peace and time
Wake up my mind

(REF)
Sweet peace and time
Wake up my mind

guitar solo until ends
            
Hard to play? Try these video lessons and learn fast. | Correct




comments powered by Disqus
↑ Back to top | Tablatures and chords are parodies/interpretations of the original songs. You may use it for private study, scholarship, research or language learning purposes only