» » »

Earth And Water Song Tabs (ver.1)

Artists:  A B C D E F G H I J K L M N O P Q R S T U V W X Y Z # 

Earth And Water Song Tabs (ver.1)

Humble Pie
Rating:
4/5 (1 vote)

Hard to play? Try these video lessons and learn fast.
                -------------------------------------------------------------------------------
------------------------------------------------------------------------------



 Lovely acoustic song almost entirely attributable to Peter Frampton,
 surely rock's most underrated guitarist. I haven't gone right into the 
 fully transcribed tab thing, mainly because I'm not that good at time 
 signatures, so it's basically the main chord progressions. All little 
 flourishes and twirls can be heard from the record.


  Intro: (Basically a D chord, then to Am).

  Note: 6th (Lower 'E' string) is not sounded at any stage during
             Intro or verses. First or High 'E' can be sounded in
             passing, where not shown.


e|--2---3p2-----0------------0---2---3----2------------------------|
B|--3-------(3)-1---1p0--------------------------3-------1p0-------|
G|--2-----------2--------2-------------------------------------2---| x2
D|--0-----------2----------------0---2----0---0------0-------------|
A|---------------------------3-------------------------------------|
D|-----------------------------------------------------------------|


e|-----------------------------------------------|
B|---0---------0-----------0--0-----0------------|
G|---1/6-------4-----------2--2-----0------------| x2
D|---2/7-------5-----------4-----4--2------------|
A|---0-----0---0--0--0--0--0--------0---0--0--0--|
D|-----------------------------------------------|

  Verses:

e|-------------------------------------------------------------------------|
B|--0-------------------------------6/10-----------------------------------|
G|--1/6-----------------------------5/9------------------------------------|
D|--2/7-----------------------------7/11-----------------------------------|
A|--0-------------------------------0--------------------------------------|
D|-------------------------------------------------------------------------|
   I'll            take            your            word         if    it
  

e|-------------------------------------------------------|
B|--8--------------7---------3-----3/5-----3---0--3---5--|
G|--7--------------7---------4-----4/6-----4---2--4---6--|
D|--9--------------9---------5-----5/7-----5---4--5---7--|
A|--0--------------0---------0-----0-------0---0--0---0--|
D|-------------------------------------------------------|
   rains,   I'll   wear     my     coat.
  

e|---------------------------------------------------|
B|--0---------------------------------6/10-----------|
G|--1/6-------------------------------5/9------------|
D|--2/7-------------------------------7/11-----------|
A|--0---------------------------------0--------------|
D|---------------------------------------------------|
   Don't           tell              me         now        


e|------------------------------------------------------------|
B|--8---------------7---------3-----3/5-----------------------|
G|--7---------------7---------4-----4/6-------6h7--6--6h7--6--|
D|--9---------------9---------5-----5/7-----------------------|
A|--0---------------0---------0-----0---------0---------------|
D|------------------------------------------------------------|
   What,     what   is        to    come.


e|-----------------------10-----8------7-----------|
B|--5/10-----10--12------12-----8------8-----------|
G|--6/11-----11--11------12-----10-----7-----------|
D|--7/12-----12--12------0------0------0--0--0--0--|
A|-------------------------------------------------|
D|-------------------------------------------------|
    I live      from     day    to    day.

      
e|--8-----7---------5---0----0------------5----7\5---|
B|--8-----8---------0---8----7------------5----------|
G|--7-----7---------0---0----7------------5----------|
D|--0-----0---------0---0----7------------0----------|
A|---------------------------0------------0----------|
D|---------------------------------------------------|
   Who   knows    what  tomorrow  will  bring?

e|------------------------10-----8-------7-------------|
B|--5/10-------10--12-----12-----8-------8-------------|
G|--6/11-------11--11-----12-----10------7-------------|
D|--7/12-------12--12-----0------0-------0----0--0--0--|
A|-----------------------------------------------------|
D|-----------------------------------------------------|
 Love and fate  run       hand   in    hand.

e|--8------7---------------------0------5----|
B|--8------8---------------------7------5----|
G|--7------7---------------------7------5----|
D|--0------0---------------------7------0----|
A|-------------------------------0------0----|
D|-------------------------------------------|
    I     know  there must be a better land.


e|--------------------------------|
B|--------------------------------|
G|-4p2--------------------0----0--|
D|-----4------2----0----3---3-----|
A|--------------------------------|
D|--------------------------------|
    Mmmmm   Hmmmm    Mmmmmmm.  


e|------3p2---0--0h2---2---1-------------------0-----3-----3------------3--|
B|---3--3--------3-----3---2-------------------1-----0-----0---1--3--1--0--|
G|-2----2--------2-----2---2-------------------0-----0-----0---0--0--0--0--|
D|------0--------0-----0---0-------------------2-----0-----0---0--0--0--0--|
A|------0--------0-----0---0-------------------3-----2-----2------------2--|
D|---------------------------------------------0-----3-----3---3--------3--|
                 Yeah, I know there must be a better land.  
                      (repeat for verse 2).

 
 Accompaniment to first instrumental bit:( A, G, D )

e|-----0----3----2---0---0h2---|
B|-----2----0----3---3---3-----|
G|-----2----0----2---2---2-----| x4.
D|-----2----0----0---0---0-----|
A|-----0----2----0---0---0-----|
D|----------3------------------|

 Accompaniment to 2nd instrumental bit is 'I live..' chord sequence.

 Accompaniment for 3rd instrumental bit (before 'I have found..') ( D, A, E )
  
e|--2---0---0---|
B|--3---2---0---|
G|--2---2---1---|
D|--0---2---2---|
A|--0---0---2---|
D|----------0---|


 Middle Eight:

   (D) (Bm)                 (A)                     (D)         (E) 
    
e|--2---2--------------------0-----------------------2-----------0------|
B|--3---3--------------------2-----------------------3-----------0------|
G|--2---4--------------------2-----------------------2-----------1------|
D|--0---4--------------------2-----------------------0-----------2------|
A|--0---2--------------------0-----------------------0-----------2------|
D|------2--------------------0-----------------------------------0------|
         I have found all I need is my love, in the day, oh! at night 


             (A)      (Bm)                      (G)

e|------------0--------2-------------------------3---|
B|------------2--------3-------------------------0---|
G|------------2--------4-------------------------0---|
D|------------2--------4-------------------------0---|
A|------------0--------2-------------------------2---|
D|---------------------2-------------------------3---|   
  and in the morning.     She can tell when I'm down. 

                   (E)                     (A) 

e|------------------0---|-------------------0----|
B|------------------0---|-------------------2----|
G|------------------1---|-------------------2----|
D|------------------2---|-------------------2----|
A|------------------2---|-------------------0----|
D|------------------0---|------------------------|
   I'll sing this song    when things are wrong.      

       (return to 'I live' chord sequence)



Rest of verses:

I'll take your word 
That a moonbeam can be heard
Time passes by
But my heart still stays the same

She came just like the sun
I know she is mine, I know.
You see the stars and yet
I am the Earth and she is my water.
Yeah, I am the Earth and she is my water.

I'll take your word
That your moon has moved away
Don't look ahead for me,
I'll wait my turn

I am the Earth and she is my water.

I have found all I need is my love
In the day, oh! at night 
and in the morning.
She can tell when I'm down.
I'll sing this song
When things are wrong.

I live from day to day
Who knows what tomorrow may bring?
Love and fate run hand in hand.
I know there must be a better land.
I know there must be a better land.







| /  slide up
| \  slide down
| h  hammer-on
| p  pull-off
| ~  vibrato
| +  harmonic
| x  Mute note
===============================================================================
            
Hard to play? Try these video lessons and learn fast. | Correct




comments powered by Disqus
↑ Back to top | Tablatures and chords are parodies/interpretations of the original songs. You may use it for private study, scholarship, research or language learning purposes only