» » »

Human League, Together In Electric Dreams Chords (ver.2)

Artists:  A B C D E F G H I J K L M N O P Q R S T U V W X Y Z # 

Together In Electric Dreams Chords (ver.2)

Human League Tabs
 Rating:
4/5 (9 votes)
Together In Electric Dreams lessons Tabs too difficult? Try these video lessons and learn fast
1
                Human League
Together in Electric Dreams
The Very Best Of The Human eague - 2003

CORRECT TAB - by Wilson

-----------------------------------------------
Intro
-----------------------------------------------

E|----------------------|
B|----------------8-6---|
G|------8----5--------8-|
D|-5--8---6----8--------|
A|----------------------|
E|----------------------|

Ends on D# Major bar chord - kicks into the
chorus riff:

-----------------------------------------------
Chorus Riff/Intro
-----------------------------------------------

Eb - - - Ab - - - Bb - - - Ab - - -

Repeats with vising synths. 80's!

-----------------------------------------------
Verse
-----------------------------------------------

  Eb            Bb
I only knew you for a while
  C              Ab
I never saw your smile
            Eb
'til it was time to go
Bb          C    Ab      Bb
Time to go away (time to go away)
Eb                     Bb
Sometimes it's hard to recognize
     C          Ab
Love comes as a surprise
             Eb
And it's too late
     Bb               C
It's just too late to stay
    Ab      Bb
Too late to stay

-----------------------------------------------
Chorus Riff
-----------------------------------------------

E|----------|
B|----------|
G|-----8----|
D|---8---6--|
A|-6--------|
E|----------|

Keep the last note held through first line of
the chorus.
-----------------------------------------------
Chorus
-----------------------------------------------

                Eb
We`ll always be together
Ab      Bb     Eb
However far it seems

(love never ends) - [Repeat Riff]

                Eb
We`ll always be together
Ab          Bb       Eb
Together in electric dreams

-----------------------------------------------

The little break after this, you can play about
with on your own!

-Peace
            
Submit corrections

comments powered by Disqus
↑ Back to top | Human League Chords for Together In Electric Dreams. Lyrics for acoustic guitar and electric guitar. 1 Tablatures and chords are parodies/interpretations of the original songs. You may use it for private study, scholarship, research or language learning purposes only