» » »

Human League, Love Action Bass tabs (ver.1)

Artists:  A B C D E F G H I J K L M N O P Q R S T U V W X Y Z # 

Love Action Bass tabs (ver.1)

Human League Tabs
 Rating:
4/5 (4 votes)
Love Action lessons Tabs too difficult? Try these video lessons and learn fast
                -------------------------------------------------------------------------------
-------------------------------------------------------------------------------


Tuning: EADG

Main Riff
G|------------------------|
D|------------------------|
A|-0--5-5-5-5--3-0--------|
E|-----------------4------|

Bridge section around 1:40
G|-----------------------------------------------------------|
D|-----------------------------------------------------------|
A|-0-3--0-3-5---0-3--0-3-5---0-3---0-3-5---0-3--0-3-5--------|
E|-----------------------------------------------------------|

Mainly drum: 2:15 but I like to play along...
G|----------------------------|
D|----------------------------|
A|--5-5-5-5-5-5-5-5-5-5-5-----|Etc..
E|----------------------------|



| /  slide up
| \  slide down
| h  hammer-on
| p  pull-off
| ~  vibrato
| +  harmonic
| x  Mute note
===============================================================================
            
Submit corrections

comments powered by Disqus
↑ Back to top | Human League Bass for Love Action. Lyrics for acoustic guitar and electric guitar. Tablatures and chords are parodies/interpretations of the original songs. You may use it for private study, scholarship, research or language learning purposes only