>
 >
Louise

Louise Bass Tabs

Human League - Louise chords, tabs, tablatures, lyrics

Guitar lessons | Add/correct | Request | Top 50 tabs Artists:  A B C D E F G H I J K L M N O P Q R S T U V W X Y Z 0-9

Louise Bass Tabs – Human League

CD, Sheet music, Poster

Do you like Louise? Share with your friends now
Bass TabsChordsUkulele
Ok, so this is the bass line from Louise; it's pretty easy but the speed can catch you 
out sometimes.

NOTE: Tuning in drop D!!

Verse:
G|-------------------------------------------------------------------------|
D|o-----0-0------------0-0-----------0-0-----------0-0---------------------|
A|o---------2-0------------2-0-----------2-0-----------2-0-----------------|
D|--0------------4-2-0---------4-2-0---------4-2-0---------4-2-0-----------|
   _________________  _________________
  |1.                |2,3.
G|-------------------------------------|
D|--0-0-------0--------0-0-------0-----|
A|------2-0-2--------------2-0-2---2---|
D|-------------------------------------|

Chorus:
G|-------------------------------------------------------------------------|
D|-------------------------------------------------------0---0-0---0---0-0-|
A|--2-2---2-2----2-2---2-2---------------------------0---------------------|
D|------4------4-----4-----4---5-5-0-5-5-0-5-5-0-5-5---4---4-----4---4-----|

G|-------------------------------------------------------------------------|
D|0----0------0------------------------------------------------------------|
A|--------------0-0--------------------------------------------------------|
D|---6---6-6---------------------------------------------------------------|

That simple.





Comments


Popular Human League tabs & chords
Being Boiled Bass Tabs
Dont You Want Me Baby Bass Tabs
Hard Times Bass Tabs
Love Action Bass Tabs
Love Action 2 Bass Tabs
Seconds Bass Tabs
Dont You Want Me Baby Chords
Together In Electric Dreams Chords
Keep Feeling Fascination Ukulele
Louise Ukulele


Song lyrics



↑ Back to top | Tablatures and chords are parodies/interpretations of the original songs. You may use it for private study, scholarship, research or language learning purposes only
© 2014 AZChords.com Contact us | Privacy policy | DMCA | Add/correct tabs | Request tabs | Top 50 tabs