» » »

Human League, Dont You Want Me Baby Tabs (ver.1)

Artists:  A B C D E F G H I J K L M N O P Q R S T U V W X Y Z # 

Dont You Want Me Baby Tabs (ver.1)

Human League Tabs
 Rating:
4/5 (4 votes)
Dont You Want Me Baby lessons Tabs too difficult? Try these video lessons and learn fast
1
                HUMAN LEAGUE - DON'T YOU WANT ME BABY (Cover)

This is a tab I made for my band. I guess it can be played in
rock/punk/indie/metal/whatever style, it's upto you. Enjoy :-)

Suggestions:
Guitar 1: Distortion (however much is needed)
Guitar 2: Reverb or flanger (or something suitable)

INTRO
GUITAR 1 
(if needed: same as below but an octave higher, a capo may be used)
GUITAR 2
|----------------|----------------|----------------|----------------|
|----------------|----------------|----------------|----------------|
|----------------|----------------|----------------|----------------|
|----------------|----------------|----------------|---------32*----|
|-----------23~--|---------32-----|-----------23~--|-----------3----|
|5-5-035--35-----|5-5-035----35~--|5-5-035--35-----|5-5-035-----5~--|
*(This line can be played hammering a couple times very fast)

VERSE
GUITAR 1 
(alternatively, played using palm muted power chords)
 F                G  
|1-1-1-1-1-1-1-1-|3-3-3-3-3-3-3-3-|
|1-1-1-1-1-1-1-1-|3-3-3-3-3-3-3-3-|
|2-2-2-2-2-2-2-2-|4-4-4-4-4-4-4-4-|
|3-3-3-3-3-3-3-3-|5-5-5-5-5-5-5-5-|
|3-3-3-3-3-3-3-3-|5-5-5-5-5-5-5-5-|
|1-1-1-1-1-1-1-1-|3-3-3-3-3-3-3-3-|

GUITAR 2 - Comes In Half Way Through Verse
 F                G  
|----------------|----------------|
|----------------|----------------|
|10x-10x-10~-----|12x12x12~-------|
|10x-10x-10~-----|12x12x12~-------|
|8-x-8-x-8~------|10x10x10~-------|
|----------------|----------------|

PRE CHORUS Part ONE x2
GUITAR 1 (GUITAR 2 - single note, high octave, tremolo)
Am[x8]        
Em[x8]
F [Barre][x8]
D [Barre][x4]
G [Barre][x4]

PRE CHORUS PART TWO 
GUITAR 1 (GUITAR 2 - single note, high octave, tremolo)
Am[x8]
B [Barre][x8]
C [Barre][x8]
E [x8]   (Guitar 2 does high octave power chord) 
                            
CHORUS
GUITAR 1
 F                G  
|1-1-1-1-1-1-1-1-|3-3-3-3-3-3-3-3-|
|1-1-1-1-1-1-1-1-|3-3-3-3-3-3-3-3-|
|2-2-2-2-2-2-2-2-|4-4-4-4-4-4-4-4-|
|3-3-3-3-3-3-3-3-|5-5-5-5-5-5-5-5-|
|3-3-3-3-3-3-3-3-|5-5-5-5-5-5-5-5-|
|1-1-1-1-1-1-1-1-|3-3-3-3-3-3-3-3-|

GUITAR 2
 F                G                F                G
|--------------8-|--------------10|--------------10|--------10------|
|------------10--|------------12--|------------10--|----------12----|
|----------10----|----------12----|----------10----|------------12--|
|----10--10------|----12--12------|----10--10------|----12--------12|
|--8---8---------|--10--10--------|--8---8---------|--10--12--------|
|8---------------|10--------------|8---------------|10--------------|




LYRICS

VERSE 1:
You were working as a waitress 
In a cocktail bar
When I met you
I picked you out 
I shook you up 
And turned you around
Turned you into someone new
Now five years later on 
you've got the world at your feet
Success has been so easy for you
But don't forget 
It's me who put you where you are now
And I can put you back down too

PRE CHORUS:
Don't, don't you want me
You know I can't believe it 
When I hear that you won't see me
Don't, don't you want me
You know I don't believe you 
When you say that you don't need me
It's much too late to find
You think you've changed your mind
You'd better change it back 
Or we will both be sorry

CHORUS:
Don't you want me, baby 
Don't you want me, oh
Don't you want me, baby 
Don't you want me, oh

VERSE 2:
I was working as a waitress 
In a cocktail bar
That much is true
But even then I knew I'd find 
A much better place
Either with or without you
The five years we have had 
Have been such good times
I still love you
But now I think it's time 
I lived my life on my own
I guess it's just what I must do

PRE CHORUS:
Don't, don't you want me
You know I can't believe it 
When I hear that you won't see me
Don't, don't you want me
You know I don't believe you 
When you say that you don't need me
It's much too late to find
You think you've changed your mind
You'd better change it back 
Or we will both be sorry

CHORUS:
Don't you want me, baby 
Don't you want me, oh
Don't you want me, baby
Don't you want me, oh

INTRO

CHORUS:
Don't you want me, baby 
Don't you want me, oh
Don't you want me, baby
Don't you want me, oh...
            
Submit corrections

comments powered by Disqus
↑ Back to top | Human League Tabs for Dont You Want Me Baby. Lyrics for acoustic guitar and electric guitar. 1 Tablatures and chords are parodies/interpretations of the original songs. You may use it for private study, scholarship, research or language learning purposes only