» » »

Hip To Be Square Bass tabs (ver.1)

Artists:  A B C D E F G H I J K L M N O P Q R S T U V W X Y Z # 

Hip To Be Square Bass tabs (ver.1)

Huey Lewis And The News
Rating:
5/5 (1 vote)

Hard to play? Try these video lessons and learn fast.
                -------------------------------------------------------------------------------
-------------------------------------------------------------------------------


Tuning: Standard (EADG)

Intro:
G|--------|--------|--------|--------|
D|2-------|-------0|2-------|-------0|
A|--------|-----02-|--------|-----02-|
E|-0-4-4-4|545-----|-0-4-4-4|545-----|
  1+2+3+4+ 1+2+3+4+ 1+2+3+4+ 1+2+3+4+

G|--------|--------|--------|--------|
D|2-------|-------0|2-------|--------|
A|--------|-----02-|--------|----2-2-|
E|-0-4-4-4|545-----|-0-4-4-4|545-----|
  1+2+3+4+ 1+2+3+4+ 1+2+3+4+ 1+2+3+4+

Verse 1:
G|--------|--------|--------|--------|
D|2-------|-------0|2-------|-------0|
A|--------|-----02-|--------|-----02-|
E|-0-4-4-4|545-----|-0-4-4-4|545-----|
  1+2+3+4+ 1+2+3+4+ 1+2+3+4+ 1+2+3+4+

G|--------|--------|--------|--------|
D|2-------|-------0|2-------|--------|
A|--------|-----02-|--------|----2-2-|
E|-0-4-4-4|545-----|-0-4-4-4|545-----|
  1+2+3+4+ 1+2+3+4+ 1+2+3+4+ 1+2+3+4+

Pre-Chorus:
G|--------|--------|--------|--------|
D|--------|--------|--------|--------|
A|0-------|--------|0---2---|--------|
E|--------|3-------|--------|0-------|
  1+2+3+4+ 1+2+3+4+ 1+2+3+4+ 1+2+3+4+

G|--------|--------|--------|--------|
D|--------|--------|--------|--------|
A|--------|--------|0-------|2-------|
E|2-------|4-------|--------|--------|
  1+2+3+4+ 1+2+3+4+ 1+2+3+4+ 1+2+3+4+

Chorus:
G|--------|--------|--------|--------|
D|2-------|-------0|2-------|--------|
A|--------|-----02-|--------|----2-2-|
E|-0-4-4-4|545-----|-0-4-4-4|545-----|
  1+2+3+4+ 1+2+3+4+ 1+2+3+4+ 1+2+3+4+

Verse 2:
G|--------|--------|--------|--------|
D|2-------|-------0|2-------|-------0|
A|--------|-----02-|--------|-----02-|
E|-0-4-4-4|545-----|-0-4-4-4|545-----|
  1+2+3+4+ 1+2+3+4+ 1+2+3+4+ 1+2+3+4+

G|--------|--------|--------|--------|
D|2-------|-------0|2-------|--------|
A|--------|-----02-|--------|----2-2-|
E|-0-4-4-4|545-----|-0-4-4-4|545-----|
  1+2+3+4+ 1+2+3+4+ 1+2+3+4+ 1+2+3+4+

Pre-Chorus:
G|--------|--------|--------|--------|
D|--------|--------|--------|--------|
A|0-------|--------|0---2---|--------|
E|--------|3-------|--------|0-------|
  1+2+3+4+ 1+2+3+4+ 1+2+3+4+ 1+2+3+4+

G|--------|--------|--------|--------|
D|--------|--------|--------|--------|
A|--------|--------|0-------|2-------|
E|2-------|4-------|--------|--------|
  1+2+3+4+ 1+2+3+4+ 1+2+3+4+ 1+2+3+4+

Chorus 2:
G|--------|--------|--------|--------|
D|2-------|-------0|2-------|-------0|
A|--------|-----02-|--------|-----02-|
E|-0-4-4-4|545-----|-0-4-4-4|545-----|
  1+2+3+4+ 1+2+3+4+ 1+2+3+4+ 1+2+3+4+

G|--------|--------|--------|--------|
D|2-------|-------0|2-------|--------|
A|--------|-----02-|--------|----2-2-|
E|-0-4-4-4|545-----|-0-4-4-4|545-----|
  1+2+3+4+ 1+2+3+4+ 1+2+3+4+ 1+2+3+4+

Bridge:
G|--------|--------|--------|--------|
D|--------|--------|--------|--------|
A|--------|--------|--------|--------|
E|0-------|0-------|0-------|0-------| X3
  1+2+3+4+ 1+2+3+4+ 1+2+3+4+ 1+2+3+4+

G|--------|--------|--------|--------|
D|--------|--------|--------|------01|
A|--------|--------|--------|--012---|
E|0-------|0-------|0-------|24------|
  1+2+3+4+ 1+2+3+4+ 1+2+3+4+ 1+2+3+4+

Solo:
G|--------|--------|--------|--------|
D|2-------|-------0|2-------|-------0|
A|--------|-----02-|--------|-----02-|
E|-0-4-4-4|545-----|-0-4-4-4|545-----|
  1+2+3+4+ 1+2+3+4+ 1+2+3+4+ 1+2+3+4+

G|--------|--------|--------|--------|
D|2-------|-------0|2-------|--------|
A|--------|-----02-|--------|----2-2-|
E|-0-4-4-4|545-----|-0-4-4-4|545-----|
  1+2+3+4+ 1+2+3+4+ 1+2+3+4+ 1+2+3+4+

Verse 3:
G|--------|--------|--------|--------|
D|2-------|-------0|2-------|-------0|
A|--------|-----02-|--------|-----02-|
E|-0-4-4-4|545-----|-0-4-4-4|545-----|
  1+2+3+4+ 1+2+3+4+ 1+2+3+4+ 1+2+3+4+

G|--------|--------|--------|--------|
D|2-------|-------0|2-------|--------|
A|--------|-----02-|--------|----2-2-|
E|-0-4-4-4|545-----|-0-4-4-4|545-----|
  1+2+3+4+ 1+2+3+4+ 1+2+3+4+ 1+2+3+4+

Pre-Chorus:
G|--------|--------|--------|--------|
D|--------|--------|--------|--------|
A|0-------|--------|0---2---|--------|
E|--------|3-------|--------|0-------|
  1+2+3+4+ 1+2+3+4+ 1+2+3+4+ 1+2+3+4+

G|--------|--------|--------|--------|--------|
D|--------|--------|--------|--------|--------|
A|0-------|--------|0---2---|--------|--------|
E|--------|3-------|--------|0-------|--------|
  1+2+3+4+ 1+2+3+4+ 1+2+3+4+ 1+2+3+4+ 1+2+3+4+

G|--------|--------|--------|--------|
D|--------|--------|--------|--------|
A|--------|--------|0-------|2-------|
E|2-------|4-------|--------|--------|
  1+2+3+4+ 1+2+3+4+ 1+2+3+4+ 1+2+3+4+

Chorus repeats until end:
G|--------|--------|--------|--------|
D|2-------|-------0|2-------|-------0|
A|--------|-----02-|--------|-----02-|
E|-0-4-4-4|545-----|-0-4-4-4|545-----|
  1+2+3+4+ 1+2+3+4+ 1+2+3+4+ 1+2+3+4+

G|--------|--------|--------|--------|
D|2-------|-------0|2-------|--------|
A|--------|-----02-|--------|----2-2-|
E|-0-4-4-4|545-----|-0-4-4-4|545-----|
  1+2+3+4+ 1+2+3+4+ 1+2+3+4+ 1+2+3+4+
            
Hard to play? Try these video lessons and learn fast. | Correct




comments powered by Disqus
↑ Back to top | Tablatures and chords are parodies/interpretations of the original songs. You may use it for private study, scholarship, research or language learning purposes only