» » »

Smokestack Lightnin Tabs (ver.2)

Artists:  A B C D E F G H I J K L M N O P Q R S T U V W X Y Z # 

Smokestack Lightnin Tabs (ver.2)

Howlin Wolf
Rating:
4/5 (4 votes)

Hard to play? Try these video lessons and learn fast.
                Smokestack lightnin’   howlin’ wolf (aka Chester Arthur Burnett)

============================================================================


An early song from howlin’ wolf styled after his heroes early delta blues style.  The
song consists of two guitar riffs; the song opens with the first riff played 4 times then
second riff then the first again with a  blues (harp) harmonica instrumental just after 
two. And there are some root notes thrown in from time to time it sounds about right.


X = mute notes


Smokestack Lightnin’  -  Howlin' Wolf
---------------------------------------

First Riff:
 e |----------------------------------------------------------------|
 B |-X-5------8-----------------------------------------------------|
 G |--------------------------------7-------------------------------|
 D |--------------------------7/9-----9-------7-----5---------------|
 A |--------------------------------------------------7-----5-------|
 E |----------------------------------------------------------0-----|

Second Riff:

 e |----------------------------------------------------------------|
 B |---X-5-------3--------------------------------------------------|
 G |--------------------------------7-------------------------------|
 D |--------------------------7/9-----9-------7-----5---------------|
 A |--------------------------------------------------7-----5-------|
 E |----------------------------------------------------------0—X-X-|


enjoy!
            
Hard to play? Try these video lessons and learn fast. | Correct




comments powered by Disqus
↑ Back to top | Tablatures and chords are parodies/interpretations of the original songs. You may use it for private study, scholarship, research or language learning purposes only