>
 >
Im Leavin You

Im Leavin You Guitar Tabs

Howlin Wolf - Im Leavin You chords, tabs, tablatures, lyrics

Guitar lessons | Add/correct | Request | Top 50 tabs Artists:  A B C D E F G H I J K L M N O P Q R S T U V W X Y Z 0-9

Im Leavin You Guitar Tabs – Howlin Wolf

CD, Sheet music, Poster

Do you like Im Leavin You? Share with your friends now
Tabs
----------------------------------------------------------------------------
                         I'm leavin you-howlin wolf
----------------------------------------------------------------------------

Standard tuning


Guitar 1
e-3-3-3-1-1-1-----------------/1-0---|
B-3-----------3-3-3-1-1-1-0-x-/2-1---|
G-0-------------------------x--------|
D------------------------------------|
A------------------------------------|
E------------------------------------|
|
|
|Guitar2
e------------------------------------|
B------------------------------------|
G------------------------------------|
D------------------------------5-6-7-|
A------------------------------3/4-5-|
E------------------------------------|

Verse

e-------------------------------------------------8-8-8-6-7\------|
B------------------------------------------------8----------------|
G-----------------------------------------------------------------|
D-----------------------------------------------------------------|
A-----------------------------------------------------------------|
E-----------------------------------------------------------------|
|
|
|  Shuffle rhythm
e-----------------------------------------------------------------|
B-----------------------------------------------------------------|
G-----------------------------------------------------------------|
D-----------------------------------------------------------------|
A-5-5-7-7-5-5-7-7-5-5-7-7-5-5-7-7-5-5-7-7-5-5-7-7-5-5-7-8-5-5-7-7-|
E-3-3-3-3-3-3-3-3-3-3-3-3-3-3-3-3-3-3-3-3-3-3-3-3-3-3-3-3-3-3-3-3-|

e------10-9-8\6-----------10-9-8-6---/10-10-8-8-6--/13-13-12-12-10-|
B----8-----------8------8----------8---------------/15-15-13-13-11-|
G-------------------8h9--------------------------------------------|
D------------------------------------------------------------------|
A------------------------------------------------------------------|
E------------------------------------------------------------------|
|
|
|
e-----------------------------------------------------------------|
B-----------------------------------------------------------------|
G-----------------------------------------------------------------|
D-5-5-7-7-5-5-7-7-5-5-7-7-5-5-7-7---------------------------------|
A-3-3-3-3-3-3-3-3-3-3-3-3-3-3-3-3-5-5-7-7-8-8-7-7-5-5-7-7-8-8-7-7-|
E---------------------------------3-3-3-3-3-3-3-3-3-3-3-3-3-3-3-3-|

e---5p4p3------------------------6-3-5-------------------/1-0------|
B---------3--------------------3--------6-5-3---3-----0--/2-1------|
G---------------------------------------------5---4p3--------------|
D------------------------------------------------------------------|
A------------------------------------------------------------------|
E------------------------------------------------------------------|
|
|
|
e-----------------------------------------------------------------|
B-----------------------------------------------------------------|
G-----------------------------------------------------------------|
D-7-7-7-7-7-7-7-7-5-5-5-5-5-5-5-5---------------------------------|
A-5-5-5-5-5-5-5-5-3-3-3-3-3-3-3-3-5-5-7-7-5-5-7-7-5---------------|
E---------------------------------3-3-3-3-3-3-3-3-3---------------|

Chorus (0:32)

e-----------------3-------------3---------6-6-6-6-6-6-6-6-6\----|
B-------------3h5-----------3h5-----------8-6-8-6-8-6-8-6-8\----|
G---------3h4-----------3h4-------------------------------------|
D---------------------------------------------------------------|
A---------------------------------------------------------------|
E---------------------------------------------------------------|
|
|
|
e---------------------------------------------------------------|
B---------------------------------------------------------------|
G-----------4-4-4---------4-4-4-----------4-4-4-----------------|
D-5---------3-3-3-5-------3-3-3-5---------3-3-3-5---------------|
A-5---------5-5-5-5-------5-5-5-5---------5-5-5-5-5-7-7-5-5-7-7-|
E-3---------3-3-3-3-------3-3-3-3---------3-3-3-3-3-3-3-3-3-3-3-|

e--10-9-8\6--6------10-9-8-6/6--6-/13-13-12-12-10^10^-13-13-12-12-10^10^10^-|
B-8---------8-8-8/8x-----------8--/15-15-13-13-11^11^-15-15-12-12-11^11^11^-|
G--------------9------------------------------------------------------------|
D---------------------------------------------------------------------------|
A---------------------------------------------------------------------------|
E---------------------------------------------------------------------------|
|
|
|
e-------------------------------------------------------------------|
B-------------------------------------------------------------------|
G-------------------------------------------------------------------|
D--5-5-7-7-5-5-7-7-5-5-7-7-5-5-7-7----------------------------------|
A--3-3-3-3-3-3-3-3-3-3-3-3-3-3-3-3-5-5-7-7-8-8-7-7-5-5-7-7-8-8-7-7--|
E----------------------------------3-3-3-3-3-3-3-3-3-3-3-3-3-3-3-3--|


e-5~-------5-7-5-----10-9-8\6--------------3-----6-3---------------|
B------5h7--------5/8---------8\-3---3----3--6-3-----3-------------|
G----------------------------------5---3h4-------------5-3h4-------|
D------------------------------------------------------------5-----|
A------------------------------------------------------------------|
E---------------------------------------------------------------3--|
|
|
|
e-----------------------------------------------------------------|
B-----------------------------------------------------------------|
G-----------------------------------------------------------------|
D-7-7-7-7-7-7-7-7-5-5-5-5-5-5-5-5---------------------------------|
A-5-5-5-5-5-5-5-5-3-3-3-3-3-3-3-3-5-5-7-7-5-5-7-7-5---------------|
E---------------------------------3-3-3-3-3-3-3-3-3---------------|

Chorus (0:57)

e-----------------3-------------3---------6-6-6-6-6-6-6-6-6\----|
B-------------3h5-----------3h5-----------8-6-8-6-8-6-8-6-8\----|
G---------3h4-----------3h4-------------------------------------|
D---------------------------------------------------------------|
A---------------------------------------------------------------|
E---------------------------------------------------------------|
|
|
|
e---------------------------------------------------------------|
B---------------------------------------------------------------|
G-----------4-4-4---------4-4-4-----------4-4-4-----------------|
D-5---------3-3-3-5-------3-3-3-5---------3-3-3-5---------------|
A-5---------5-5-5-5-------5-5-5-5---------5-5-5-5-5-7-7-5-5-7-7-|
E-3---------3-3-3-3-------3-3-3-3---------3-3-3-3-3-3-3-3-3-3-3-|

e-6-----------------------------------3-----5-3---7\6-3---5p3----------|
B--8-6-8-6-------------5-3--/5-3-----3--6-3-----3-------3----3-----3---|
G----------7-5-6-5\4---5-3--/5-3--/4--------------------------5-3h4----|
D-------------------5p0----------------------------------------------5-|
A----------------------------------------------------------------------|
E----------------------------------------------------------------------|
|
|
|
e-------------------------------------------------------------------|
B-------------------------------------------------------------------|
G-------------------------------------------------------------------|
D--5-5-7-7-5-5-7-7-5-5-7-7-5-5-7-7----------------------------------|
A--3-3-3-3-3-3-3-3-3-3-3-3-3-3-3-3-5-5-7-7-8-8-7-7-5-5-7-7-8-8-7-7--|
E----------------------------------3-3-3-3-3-3-3-3-3-3-3-3-3-3-3-3--|


e-5-3---3h5p3-1/2--/3-----------------3----5p3--------------------|
B-----------------3--6p3-3-1~-1------3-6p3----3------------5-5^---|
G------------------------------3p0-/4----------5-3h4-------5-5^---|
D----------------------------------------------------5p3p0--------|
A-----------------------------------------------------------------|
E-----------------------------------------------------------------|
|
|
|
e-----------------------------------------------------------------|
B-----------------------------------------------------------------|
G-----------------------------------------------------------------|
D-7-7-7-7-7-7-7-7-5-5-5-5-5-5-5-5---------------------------------|
A-5-5-5-5-5-5-5-5-3-3-3-3-3-3-3-3-5-5-7-7-5-5-7-7-5-5-7-7-5-5-7-7-|
E---------------------------------3-3-3-3-3-3-3-3-3-3-3-3-3-3-3-3-|


Solo (1:24)

Guitar 1      (Guitar 2 carries on with 12 bar blues)

e-3-----3~-------------------------------------3-----5p3-----3-5-3----------|
B---6b7------3---3------------------------/3-3---6p3-----3h6-------6--------|
G--------------5---5p3---3-5p3---3^---------------------------------/7\5p3--|
D----------------------5-------5----5-------------------------------------5-|
A---------------------------------------------------------------------------|
E---------------------------------------------------------------------------|


e-------5-5\3--3-----5\3----------------------------------|
B-5\3~--5-5\3---6-3--5\3-------/6-6-6/6-6-6/6-6-6---------|
G-5\3~--5-5\3--------5\3-5p3---/7-7-7/7-7-7/7-7-7-5-3---3-|
D----------------------------5------------------------5---|
A---------------------------------------------------------|
E---------------------------------------------------------|

e-3-----5-3------/7-/7\5\------/5-5\3-----|
B---6-3-----6-3--/6-/6\5\------/5-5\3-----|
G----------------/7-/7/5\------/5-5\3-----|
D-----------------------------------------|
A-----------------------------------------|
E-----------------------------------------|

e----------3---6-3--------------------/1--0---/5^--|
B------------------6-3\2--------------/2--1~--/5^--|
G--------0---------------5-3---4p3------------/5^--|
D--3h4h5---------------------5-----5---------------|
A--------------------------------------------------|
E--------------------------------------------------|


Chorus (1:48)

e-----------7-----3\------7^----3\----------7-6-7-6-7-6-7-6-7-6-|
B-----------6^----3\------6^----3\----------8-8-8-8-8-8-8-8-8-8-|
G-----------7^----4\------7^----4\------------------------------|
D---------------------------------------------------------------|
A---------------------------------------------------------------|
E---------------------------------------------------------------|
|
|
|
e---------------------------------------------------------------|
B---------------------------------------------------------------|
G-----------4-4-4---------4-4-4-----------4-4-4-----------------|
D-5---------3-3-3-5-------3-3-3-5---------3-3-3-5---------------|
A-5---------5-5-5-5-------5-5-5-5---------5-5-5-5-5-7-7-5-5-7-7-|
E-3---------3-3-3-3-------3-3-3-3---------3-3-3-3-3-3-3-3-3-3-3-|

e--10-9-8\6--6------10-9-8-6/6----------7--6--5--3----------------|
B-8---------8-8-8/8x-----------8----------------------------------|
G--------------9---------------------/7--6--5--4------------------|
D-----------------------------------------------------------------|
A-----------------------------------------------------------------|
E-----------------------------------------------------------------|
|
|
|
e-------------------------------------------------------------------|
B-------------------------------------------------------------------|
G-------------------------------------------------------------------|
D--5-5-7-7-5-5-7-7-5-5-7-7-5-5-7-7----------------------------------|
A--3-3-3-3-3-3-3-3-3-3-3-3-3-3-3-3-5-5-7-7-8-8-7-7-5-5-7-7-8-8-7-7--|
E----------------------------------3-3-3-3-3-3-3-3-3-3-3-3-3-3-3-3--|


e-5~-------5-7-5-----10-9-8\6--------------3-----6-3---------------|
B------5h7--------5/8---------8\-3---3----3--6-3-----3-------------|
G----------------------------------5---3h4-------------5-3h4-------|
D------------------------------------------------------------5-----|
A------------------------------------------------------------------|
E---------------------------------------------------------------3--|
|
|
|
e-----------------------------------------------------------------|
B-----------------------------------------------------------------|
G-----------------------------------------------------------------|
D-7-7-7-7-7-7-7-7-5-5-5-5-5-5-5-5---------------------------------|
A-5-5-5-5-5-5-5-5-3-3-3-3-3-3-3-3-5-5-7-7-5-5-7-7-5---------------|
E---------------------------------3-3-3-3-3-3-3-3-3---------------|


Then it fade out with some improvisation





Comments


Popular Howlin Wolf tabs & chords
Built For Comfort Bass Tabs
I Aint Superstitious Bass Tabs
Killing Floor 1 Bass Tabs
Three Hundred Pounds Of Joy Bass Tabs
Three Hundred Pounds Of Joy 1 Bass Tabs
I Smell A Rat Chords
Smokestack Lightning Chords
I Aint Superstitious Tabs
Killing Floor Tabs
Smokestack Lightnin Intro Tabs


Song lyrics



↑ Back to top | Tablatures and chords are parodies/interpretations of the original songs. You may use it for private study, scholarship, research or language learning purposes only
© 2014 AZChords.com Contact us | Privacy policy | DMCA | Add/correct tabs | Request tabs | Top 50 tabs