» » »

I Aint Superstitious Tabs (ver.1)

Artists:  A B C D E F G H I J K L M N O P Q R S T U V W X Y Z # 

I Aint Superstitious Tabs (ver.1)

Howlin Wolf
Rating:
0/5 (0 votes)

Hard to play? Try these video lessons and learn fast.
                
p - pull-off
h - hammer-on
b - bend
r - release

standard tuning (EADGBe)

Intro
E----------------------]
B----------------------]
G------0---------------] 2x
D--0h4---4--0-0--------]
A----------------------]
E----------------------]

Verse
E------------------------------------------------------]
B------------------------------------------------------]
G-0---------0---0----------------0--0----------0-------] 2x
D-------0h3-------4-3--------0h3------0-----0-4--4--0-0]
A------------------------------------------------------]
E------------------------------------------------------]

third time on first verse play
E-------------------------------13b15--13p10-13p10------------------------]
B-----13--10------------------------------------13p10-13p10---------------]
G------------12--10-----------------------------------------12p10h12p10---]
D-------------------12----10--------------------------------------------12]
A----------------------12-------------------------------------------------]
E-------------------------------------------------------------------------]

play verse again

third time
E---------------------------------13b15-13b15--13p10------------------]
B---13----10-----------------------------------------13---------------]
G------------12p10--------------------------------------12b14r12p10---]
D------------------12p10--------------------------------------------12]
A------------------------12-10----------------------------------------]
E---------------------------------------------------------------------]

verse again

third time
E--------------------------------13b15--13p10---------------------------]
B---13-13-10----------------------------------13p10---------------------]
G------------12-10----------------------------------12p10---------------]
D-----------------12-10-10--------------------------------12p10-------12]
A-------------------------12-10---------------------------------12p10---]
E-----------------------------------------------------------------------]

verse 4

third time
E---------------------------------13b15-13p10----------------------
B--13--10-------------------------------------13--13p10-13b15-13b15
G---------12-10----------------------------------------------------
D---------------12-10----------------------------------------------
A---------------------12p10h12p10----------------------------------
E------------------------------------------------------------------

verse 5
E----------------------------13b15--13p10------------------------]
B--13--10---------------------------------13p10------------------]
G---------12-10---------------------------------12b14-12b14r12---]
D--------------12-10-------------------------------------------12]
A-------------------12-10----------------------------------------]
E----------------------------------------------------------------]

Outro (not a bad time for a solo)
E----------------------]
B----------------------]
G------0---------------] repeat and fade
D--0h4---4--0-0--------]
A----------------------]
E----------------------]
            
Hard to play? Try these video lessons and learn fast. | Correct




comments powered by Disqus
↑ Back to top | Tablatures and chords are parodies/interpretations of the original songs. You may use it for private study, scholarship, research or language learning purposes only