» » »

I Aint Superstitious Bass tabs (ver.1)

Artists:  A B C D E F G H I J K L M N O P Q R S T U V W X Y Z # 

I Aint Superstitious Bass tabs (ver.1)

Howlin Wolf
Rating:
0/5 (0 votes)

Hard to play? Try these video lessons and learn fast.
                
Intro
G-----------0-------]
D----0---4----4-0--0] 2x 
A-------------------]
E-------------------]


Verse (Well i ain't superstitious...)
      Played in a swing
G--0-0--0-0-0--0-0-0--0-0-0------0------------------0--------]
D---------------------------0--4----4---0--0---0--4---4--0-0-] 2x
A------------------------------------------------------------]
E------------------------------------------------------------]

third time play
       Played in a swing
G--2-2--2-2-2--2-0-0--0-0-0--0-------0-------]
D------------------------------0-0-4---4--0-0]
A--------------------------------------------]
E--------------------------------------------]

Play verse 5x

Outro
G--------0--------]
D---0--4---4---0-0]  Repeat and fade
A-----------------]
E-----------------]
            
Hard to play? Try these video lessons and learn fast. | Correct




comments powered by Disqus
↑ Back to top | Tablatures and chords are parodies/interpretations of the original songs. You may use it for private study, scholarship, research or language learning purposes only