» » »

Howlin Wolf, Built For Comfort Bass tabs (ver.1)

Artists:  A B C D E F G H I J K L M N O P Q R S T U V W X Y Z # 

Built For Comfort Bass tabs (ver.1)

Howlin Wolf Tabs
 Rating:
4/5 (5 votes)
Built For Comfort lessons Tabs too difficult? Try these video lessons and learn fast
                Built For Comfort - Howlin' Wolf

  intro
G|----------------------7----------------------------|
D|---------------------5---7--56754-5-5---------4567-|
A|---------------------------------5---7-74567-------|
E|7777777777--5555555--------------------------------|

  verse riff   chorus "because I'm built for comfort, I ain't built for speed"
G|------------|---------------------567---------------------------------7-7---------5-5---
D|---------5-5|---4-47-7567---4-47-7---7-75-5---5-57-75-5---5-5---6-69-9------4-47-7---7--
A|---4-47-7---|5-5---------5-5---------------7-7---------7-7---7-7---------5-5------------
E|5-5---------|---------------------------------------------------------------------------

------------6789------------------|
56754-5-5--7-------5-57--------5-5|
-----7---7--------7------4-47-7---|<--this end part is how it goes into the second verse
------------------------5---------|

  solo
   x4
G|-------------|
D|-5-57--------|
A|7------4-47-7|then add on the chorus
E|------5------|
            
Submit corrections

comments powered by Disqus
↑ Back to top | Howlin Wolf Bass for Built For Comfort. Lyrics for acoustic guitar and electric guitar. Tablatures and chords are parodies/interpretations of the original songs. You may use it for private study, scholarship, research or language learning purposes only