» » »

Rohan Tabs (ver.1)

Artists:  A B C D E F G H I J K L M N O P Q R S T U V W X Y Z # 

Rohan Tabs (ver.1)

Howard Shore
Rating:
5/5 (4 votes)

Hard to play? Try these video lessons and learn fast.
                
ROHAN

(From the 2004 Album TWO TOWERS MUSICAL SOUNDTRACK)

        

Music by Howard Shore
Arranged by Nick Boyan and Michael Straight

Gtr I (E A D G B E) - 'String Ensemble 1'
Gtr II (E A D G B E) - 'String Ensemble 2'
Gtr III (E A D G B E) - 'Violin'

 Eowyn's Theme
  Slower than Theoden Q=76
  C5               D          C5         D
 3/4
  Gtr I
  Q   Q  +E  S S   Q   H      Q   H      H.
|----------------|----------|----------|-------|
|----------------|----------|----------|-------|
|-----0--(0)-2-0-|----------|-----0----|-------|
|----------------|-4---0----|----------|-4-----|
|-3--------------|-5--------|-3--------|-5-----|
|-3--------------|-5--------|-3--------|-5-----|
  H.               H.         H.


  C5               D          E5
  Q   Q  +E  S S   Q   H      Q   H      +H.
|----------------|----------|----------|--------|
|----------------|----------|-----0----|-(0)----|
|-----0--(0)-2-0-|----------|----------|--------|
|----------------|-4---0----|-2--------|-(2)----|
|-3--------------|-5--------|-2--------|-(2)----|
|-3--------------|-5--------|-0--------|-(0)----|
  H.               H.         H.         +H.


  C5         D                   E5
            4/4                 3/4
  Q   H      H.      +S  S S S   H.        +H.
|----------|-------------------|---------|--------|
|----------|-------------------|---------|--------|
|-----0----|-------------------|---------|--------|
|----------|-4-------(4)-0-4-0-|-2-------|-(2)----|
|-3--------|-5-----------------|-2-------|-(2)----|
|-3--------|-5-----------------|-0-------|-(0)----|
  H.         W


  C5         D                 E5
            4/4               3/4         2/4
  Q   H      Q  Q  +Q.   S S   Q   Q  Q    +H
|----------|-----------------|--------0--|-(0)----|
|----------|-----------------|-0---------|-(0)----|
|-----0----|-------------0-2-|-----------|--------|
|----------|-4--7--(7)-------|-2---------|-(2)----|
|-3--------|-0---------------|-2---------|-(2)----|
|-3--------|-----------------|-0---------|-(0)----|
  H.         W                 H.          +H


 King of the Golden Hall
  Sleeping Ent Q=63
  Am        G/BC    D               Am        G/BC    D
 4/4
  Gtr II
  E S S E E Q  Q    Q  E E E Q  E   E S S E E Q  Q    Q  H.
|-----------------|---------------|-----------------|----------------|
|-----------------|---------------|-----------------|----------------|
|-----------------|---------------|-----------------|----2-----------|
|-----------------|-0-------------|--------------2--|-4--0----0-2--0-|
|---0-0-0-3-2--3--|----0---0----0-|-0-0-0-0-3-2--3--|-5-----0--------|
|-3---------------|------2---3----|-----------------|----------------|
  H         H                                         Q  E  E E Q  E


  Am          G/BC       D
  E S S S S E Q  E S S   Q     H.
|----------------------|------------------|
|-------------0--1-1-1-|-3----------------|
|-------2-2-2-0--0-----|-------2----------|
|---2-2-2-2-2-0--2-2-2-|----4------(4)----|
|-0-----------2--3-----|-5-(5)-----(5)----|
|----------------------|------------------|
  H           Q  Q       E  Q.     +H


  Em/B           C            Am        G/BC
                              Gtr III
  Q  Q  Q.   E   Q  H.        E S S E E Q  Q
|--------------|------------|--------------0----|
|--------------|------------|---------1-0--1----|
|-4--0-------0-|-0----------|---2-2-2---0--0----|
|-2-----4------|----2-------|-2---------0-------|
|-2------------|-3--3-------|-0---------2--3----|
|--------------|------------|-------------------|
  W                           H         Q  Q


  D                Am        G/BC
  Q  H.            E S S E E Q  Q
|-2--------------|--------------0--|
|-3--3-----------|---------1-0--1--|
|-2--2-----------|---2-2-2---0--0--|
|-0--0-----------|-2---------0-----|
|---------0----0-|-0---------2--3--|
|-------2---3----|-----------------|
  Q  E  E E Q  E   H         Q  Q


  D                 Em
  Q   Q   Q   Q     Q   Q   +Q   +S  S  S  S
|-2---5---5-------|---------------------------|
|-3---7---7---0---|-0-------------------0--1--|
|-2---7---7-------|-0---0---(0)--(0)-0--------|
|-0-------0-------|-2---2----4----------0-----|
|-------0---7---9-|-----2---------------------|
|-----------------|-0--(0)--(0)--------(0)----|
  Q.    E E Q   E   Q   Q    Q.         E


  D                   C               Em             Am/C
  H    Q  +S  S S S   H    Q  +E. S   W              W
|-----------------0-|-0-----------0-|-0------------|-0-----------------|
|-3-------------3---|-1----1--(1)---|-0------------|-----------------0-|
|-2----2--(2)-2-----|-0----0--(0)-0-|-0----------0-|-2-------------2---|
|-4----4--(4)-------|------2--(2)---|----5--4------|----2----(2)-2-----|
|------5--(5)-------|-3-------------|--------------|-3-----------------|
|-------------------|---------------|-0------------|-------------------|
                      W               Q  Q  Q.   E   Q  H    +S  S S S


  C                D              F     GsuG4           D
  Q  Q  Q.   S S   H    E E E E   Q  Q  Q  Q    Q  E. S H       W
|----------------|------------0-|-1-----------|--------------|-10----*|
|-1--0---------0-|----------3---|----1--1--0--|----1--1-3----|-10----*|
|-0-----2----2---|-2------2-----|-2-----0--0--|---------2----|-11----*|
|-2--------------|-4------------|-3-----0--0--|---------0----|-12----*|
|-3--------------|-5------------|-3-----3--2--|--------------|-12----*|
|----------------|--------------|-1-----3--3--|--------------|-10----*|
  W                W              H     Q  Q



Duration Legend
---------------
W - whole; H - half; Q - quarter; E - 8th; S - 16th; T - 32nd; X - 64th; a - acciaccatura
+ - note tied to previous; . - note dotted; .. - note double dotted
Uncapitalized letters represent notes that are staccato (1/2 duration)
Irregular groupings are notated above the duration line
Duration letters will always appear directly above the note/fret number it represents the
duration for.  Duration letters with no fret number below them represent rests.  Multi-
bar rests are notated in the form Wxn, where n is the number of bars to rest for.  Low
melody durations appear below the staff

Tablature Legend
----------------
 h   - hammer-on
 p   - pull-off
 b   - bend
 pb  - pre-bend
 r   - bend release (if no number after the r, then release immediately)
 /\  - slide into or out of (from/to "nowhere")
 s   - legato slide
 S   - shift slide
 - natural harmonic
[n]  - artificial harmonic
n(n) - tapped harmonic
 ~   - vibrato
 tr  - trill
 T   - tap
 TP  - trem. picking
 PM  - palm muting
\n/  - tremolo bar dip; n = amount to dip
 \n  - tremolo bar down
 n/  - tremolo bar up
/n\  - tremolo bar inverted dip
 =   - hold bend; also acts as connecting device for hammers/pulls
 <> - volume swell (louder/softer)
 x   - on rhythm slash represents muted slash
 o   - on rhythm slash represents single note slash

Misc Legend
-----------
 |  - bar
||  - double bar
||o - repeat start
o|| - repeat end
*|  - double bar (ending)
 :  - bar (freetime)
 $  - Segno
 &  - Coda
Tempo markers -  = BPM(8/16=s8/s16), where s8 = swing 8ths, s16 = swing 16ths
            
Hard to play? Try these video lessons and learn fast. | Correct




comments powered by Disqus
↑ Back to top | Tablatures and chords are parodies/interpretations of the original songs. You may use it for private study, scholarship, research or language learning purposes only