» » »

Hot Water Music, Three Summers Strong Tabs (ver.1)

Artists:  A B C D E F G H I J K L M N O P Q R S T U V W X Y Z # 

Three Summers Strong Tabs (ver.1)

Hot Water Music Tabs
Rating:
0/5 (0 votes)
Three Summers Strong lessons Tabs too difficult? Try these video lessons and learn fast
                
i noticed this song had no tab so i decided to make on myself.
This is my first so comments and CONSTRUCTIVE criticism is appriciated.

b^ - bend
r - release bend
/ - slide
p.m. * - palm mute

Intro
e-------------------------------------------------------------|
B-------------------------------------------------------------|
G-------------------------------------------------------------|
D----4-4-4-------4-4-4----------------------------------------|
A----------2-2-2-------2-2-2-5-5-5-5--------------------------|
E-------------------------------------------------------------|

*lots of slides and randoms palm mutes here

Verse
e--------------------------------------------------------------|(4x)
B--------------------------------------------------------------|
G---------------------------6-6-6-6-6-0------------------------|
D---2-2-2-2-2-0-4-4-4-4-4-0-6-6-6-6-6-0-9-9-9-9-9-0------------|
A---2-2-2-2-2-0-4-4-4-4-4-0-4-4-4-4-4-0-9-9-9-9-9-0------------|
E---0-0-0-0-0-0-2-2-2-2-2-0-------------7-7-7-7-7-0------------|
p.m.***********************************************


e--------------------------------------------------------------|
B--------------------------------------------------------------|
G---------------------------6-6-6-6-6-0------------------------|
D---2-2-2-2-2-0-4-4-4-4-4-0-6-6-6-6-6-0------------------------|
A---2-2-2-2-2-0-4-4-4-4-4-0-4-4-4-4-4-0----9-9---9-9-----------|
E---0-0-0-0-0-0-2-2-2-2-2-0-------------7-7---7-7---7-7-7-7----|
p.m.***********************************


pre-chorus
e-------------------------------------------------------------------|(3x)
B-------------------------------------------------------------------|note: on the
G---6-6-6----------44-4-4-4-4-4/------------------------------------|second time
D---6-6-6----------44-4-4-4-4-4/------------------------------------|add more
A---4-4-4----------22-2-2-2-2-2/-------------------------------x244-|xx's
E-------------------------------------------------------------------|

chorus
e-------------------------------------------------------------|
B-------------------------------------------------------------|
G---6-6-6-6-6-9-9-9-9-9---------------------------------------|
D---6-6-6-6-6-9-9-9-9-9-9-9-9-9-9-9-9-9-9-9-------------------|
A---4-4-4-4-4-7-7-7-7-7-9-9-9-9-9-9-9-9-9-9-------------------|
E-----------------------0-7-7-7-7-0-7-7-7-7-------------------|


Verse
e--------------------------------------------------------------|(4x)
B--------------------------------------------------------------|
G---------------------------6-6-6-6-6-0------------------------|
D---2-2-2-2-2-0-4-4-4-4-4-0-6-6-6-6-6-0-9-9-9-9-9-0------------|
A---2-2-2-2-2-0-4-4-4-4-4-0-4-4-4-4-4-0-9-9-9-9-9-0------------|
E---0-0-0-0-0-0-2-2-2-2-2-0-------------7-7-7-7-7-0------------|
p.m.***********************************************


e--------------------------------------------------------------|
B--------------------------------------------------------------|
G---------------------------6-6-6-6-6-0------------------------|
D---2-2-2-2-2-0-4-4-4-4-4-0-6-6-6-6-6-0------------------------|
A---2-2-2-2-2-0-4-4-4-4-4-0-4-4-4-4-4-0----9-9---9-9-----------|
E---0-0-0-0-0-0-2-2-2-2-2-0-------------7-7---7-7---7-7-7-7----|
p.m.***********************************

there is a second guitar doing something here, but i don't know what it is...

chorus
e-------------------------------------------------------------|(4x)
B-------------------------------------------------------------|
G---6-6-6-6-6-9-9-9-9-9---------------------------------------|
D---6-6-6-6-6-9-9-9-9-9-9-9-9-9-9-9-9-9-9-9-------------------|
A---4-4-4-4-4-7-7-7-7-7-9-9-9-9-9-9-9-9-9-9-------------------|
E-----------------------0-7-7-7-7-0-7-7-7-7-------------------|


e-------------------------------------------------------------|
B-------------------------------------------------------------|
G---6-6-6/----------------------------------------------------|
D---6-6-6/----------------------------------------------------|
A---4-4-4/----------------------------------------------------|
E-------------------------------------------------------------|


e----------------------------------------------------------|(continues until
B----------------------------------------------------------|the second guitar
G------------------666-666---------------------------------|comes in)
D---44-444-444-444-666-666-222-222-------------------------|
A---44-444-444-444-444-444-222-222-------------------------|
E---22-222-222-222---------000-000-------------------------|
p.m.** *** *** *** *** *** *** ***


e--------------------------------------------------------|
B--------------------------------------------------------|
G------------------666-666-------------------------------|
D---44-444-444-444-666-666-222-2222222222----------------|
A---44-444-444-444-444-444-222-2222222222----------------|
E---22-222-222-222---------000-0000000000----------------|
p.m.** *** *** *** *** *** *** **********


outro
e----------------------------------------------------------------------------------|(continues until
B----------------------------------------------------------------------------------|the end)
G---11-11-11-11-11-11-11-----11-------------------------------------------9-9------|
D-----------------------11-11--11---12-12-12-12-12-12-12-12-11-11-11-12-12---------|
A----------------------------------------------------------------------------------|
E----------------------------------------------------------------------------------|

(second guitar comes in after the riff is played once)
e---------------------------------------------------------------------------------|
B---------------------------------------------------------------------------------|
G---11-11-11-11-11b^r--------------------------------------------------------9-9--|
D--------------------11-11-11-11-11b^r-12-12-12-12-12-12-12-12-11-11-11-12-12-----|
A---------------------------------------------------------------------------------|
E---------------------------------------------------------------------------------|

the end
            

comments powered by Disqus
↑ Back to top | Hot Water Music Tabs for Three Summers Strong. Lyrics for acoustic guitar and electric guitar. Tablatures and chords are parodies/interpretations of the original songs. You may use it for private study, scholarship, research or language learning purposes only