» » »

Hot Water Music, The Sense Tabs (ver.1)

Artists:  A B C D E F G H I J K L M N O P Q R S T U V W X Y Z # 

The Sense Tabs (ver.1)

Hot Water Music Tabs
 Rating:
4/5 (4 votes)
The Sense lessons Tabs too difficult? Try these video lessons and learn fast
1
                Okay this isnt the whole song but hopefully someone can finish it because i don't know how. This is the begining and the song wasn't here so i decided to put this is in because its such a great song. I think this is right it sounds right.

E----------------------------------------------------------------
A----------------------------------------------------------------
D--7-------------------------------------------------------------
G--7--let ring---------------------------------------------------
B--5--------------55--77--88--------------12--10--7-7-7----------
E-----------------------------8888--66---------------------------

the try strumming this a couple of time between each match the song

E----------------------------------------------------------------
A----------------------------------------------------------------
D--7--9--10----------14--12--9-----------------------------------
G--7--9--10--10--8---14--12--9-----------------------------------
B--5--7--8---10--8---12--10--7-----------------------------------
E------------8---6-----------------------------------------------


and thats basically it its teh begining add on if you can! Hot water rules.
Later.
            
Submit corrections

comments powered by Disqus
↑ Back to top | Hot Water Music Tabs for The Sense. Lyrics for acoustic guitar and electric guitar. 1 Tablatures and chords are parodies/interpretations of the original songs. You may use it for private study, scholarship, research or language learning purposes only