» » »

Hot Water Music, Sound Of Language Bass tabs (ver.1)

Artists:  A B C D E F G H I J K L M N O P Q R S T U V W X Y Z # 

Sound Of Language Bass tabs (ver.1)

Hot Water Music Tabs
Rating:
0/5 (0 votes)
Sound Of Language lessons Tabs too difficult? Try these video lessons and learn fast
                Intro:

G------------------------------------
D----------0-2-3-5-3------5-3-2------
A--0-0-2-3----------------------3-0--
E------------------------------------

G------------------------------------
D----------0-2-3-5-3------5-3--------
A--0-0-2-3--------------------5-4-2--
E------------------------------------


Chorus:

G---------------------------
D--0-0-2-2-2-2--------------
A--------------0-0-1-1-1-1--    X4
E---------------------------   


Verse:

G------------------------------------------------------------------------------------
D----------------------------------------------------------0-2-3-5-3-3-3-3-3-3-3-3-3-
A----------------------------------0-0-0-0-0-0-0-0-0-0-2-3---------------------------
E--1-1-1-1-1-1-1-1-1-1-1-1-1-1-1-1---------------------------------------------------

   ------------------------------------------------
   3-3-3-5-3-2-------------------------------------
   ------------3-0-0-0-0-0-0-0-0-0-0-0-0-0-0-0-0--    X2
   ------------------------------------------------  

and in the second verse play this after the abouve:

G------------------------------------------------------------------------------------
D----------------------------------------------------------0-2-3-5-3-3-3-3-3-3-3-3-3-
A----------------------------------0-0-0-0-0-0-0-0-0-0-2-3---------------------------
E--1-1-1-1-1-1-1-1-1-1-1-1-1-1-1-1---------------------------------------------------

   ----------5-4-2-2-2-2-2-2-2-2-2-2-2-2-2-2-2-2--
   3-3-3-5-3--------------------------------------
   -----------------------------------------------
   -----------------------------------------------


Post Chorus:

I havn't quite figured this bit out yet...... :-(


Interlude:

G-------------------------------------------------------
D-3----2-------------------2----------------------------
A-----------3---------0---------3-3-3-3-----------------
E----------------3----------------------0-0-0-0-0-0-0-0-


Outro:

G--------------------------------------------------------------5-4-2-2-2-2-2-2-2-2-
D--------------------------0-2-3-5-3-3-3-3-3-3-3-3-3-3-3-3-5-3-----------------------
A--0-0-0-0-0-0-0-0-0-0-2-3-----------------------------------------------------------
E------------------------------------------------------------------------------------

   -2-2-2-2-2-2-2-2-
   -----------------
   -----------------
   -----------------

followed by:

G-------------------------
D-0-0-2-2-2-2-------------
A-------------0-0-1-1-1-1-
E-------------------------


Order:

Intro
Chorus
Verse
Chorus
Post Chorus
Verse
Chorus
Post Chorus
Interlude
Post Chorus
Outro

Thats it, i really dont know if its right as i figured it out by ear 
and there are parts where the bass is hard to hear. But hey, its better 
than nothing and it sounds fine when i play it :-)
Any improvements or other HWM tabs would be apreciated!!! 
            
Submit corrections

comments powered by Disqus
↑ Back to top | Hot Water Music Bass for Sound Of Language. Lyrics for acoustic guitar and electric guitar. Tablatures and chords are parodies/interpretations of the original songs. You may use it for private study, scholarship, research or language learning purposes only