» » »

Hot Water Music, She Takes It So Well Tabs (ver.1)

Artists:  A B C D E F G H I J K L M N O P Q R S T U V W X Y Z # 

She Takes It So Well Tabs (ver.1)

Hot Water Music Tabs
Rating:
5/5 (1 vote)
She Takes It So Well lessons Tabs too difficult? Try these video lessons and learn fast
                

The Rhythm Guitar and Bass don't change at all during the song, only the lead guitar does.

[RHYTHM GUITAR] (Through the whole song)

e|------------------------------|
B|------------------------------|
G|------------------------------|
D|--9---9-9-9-9---9-9-9-9-9-9-9-|
A|--9---9-9-9-9---9-9-9-9-9-9-9-|
E|--7---7-7-7-7---7-7-7-7-7-7-7-| 

_____________________________________

[BASS] (Through the whole song)

G|---------|---------|---------|---------|
D|---------|---------|---------|---------|
A|---------|---------|---------|---------|
E|-7-7-7---|-2-2-2---|-3-3-3---|-0-0-0---| (you can play this on guitar too)

______________________________________

[OTHER GUITARS/PIANO]

(Intro Riff)

e|-------|
B|----0--|
G|----4--| On the '2 and' beat of the bar
D|-------|
A|-------| Play this for the bar 1, 2 and 3, don't play on bar 4.
E|-------|

(Verse)

Just the Rhythm and Bass, no lead guitar here

(Chorus)

e|------|------|------|------|
B|------|------|------|------|
G|-/16--|-18v--|------|------| [v = vibrato]
D|------|------|-17---|-(14)-|
A|------|------|------|------|
E|------|------|------|------|

(Interlude 1 Guitars)

G|-/16-(hold to fade)-| Play once

Also play the Intro Riff

(Interlude 1 Piano)

e|---------------------|-----------------|
B|---------------------|-----------------|
G|---------------------|-----------------|
D|---12-12-11-11-9-9-7-|-7-9-------------|
A|---------------------|-----7-----------|
E|(7)------------------|-----------------|

e|---------------------|-----------------|
B|---------------------|-----------------|
G|---------------------|-----------------|
D|---12-12-11-11-9-9-7-|-7-9-------------|
A|---------------------|-----7-----5-----|
E|(2)------------------|-----------------|

e|---------------------|-----------------|
B|---------------------|-----------------|
G|---------------------|-----------------|
D|---12-12-11-11-9-9-7-|-7-9-------------|
A|---------------------|-----7-----9-----|
E|(7)------------------|-----------------|

e|---------------------|-----------------|
B|---------------------|-----------------|
G|---------------------|-----------------|
D|---12-12-11-11-9-9-7-|-7-9-14----12----|
A|---------------------|-----------------|
E|(2)------------------|-----------------|

(Verse 2)

Same as Verse 1

(Chorus 2)

Same as Chorus 1

(Interlude 2)

G|-/16-(hold to fade)-| Play once every two bars

Also play the 'Intro Riff'

Play the Piano part twice

- END ON D|-9
         A|-9
         E|-7

(Drum outro)
            

comments powered by Disqus
↑ Back to top | Hot Water Music Tabs for She Takes It So Well. Lyrics for acoustic guitar and electric guitar. Tablatures and chords are parodies/interpretations of the original songs. You may use it for private study, scholarship, research or language learning purposes only