» » »

Hot Water Music, Seein' Diamonds Tabs (ver.1)

Artists:  A B C D E F G H I J K L M N O P Q R S T U V W X Y Z # 

Seein' Diamonds Tabs (ver.1)

Hot Water Music Tabs
 Rating:
4/5 (4 votes)
Seein' Diamonds lessons Tabs too difficult? Try these video lessons and learn fast
                -------------------------------------------------------------------------------
-------------------------------------------------------------------------------


Tuning: 1/2 step

K guys and gals, this is my first tab so go easy on me . Great song but hard to
hear the rhythm guitar over the lead. I tabbed the rhythm parts first then the lead after. Enjoy!
    

Intro

e|-3----0------|---0----3-------1--------1--1----|----3----0-----1-----0--0--3-----|
B|-1----1------|---1----1-------1--------0--0----|----1----1-----1-----1--1--3-----|
G|-2----2------|---2----2-------2--------0--0----|----2----2-----2-----0--0--0-----|
D|-2----2------|---2----2-------3--------0--0----|----2----2-----3-----2--2--0-----|
A|-0----0------|---0----0-------3--------2--2----|----0----0-----3-----3--3--2-----|
E|-------------|-------------------------3--3----|---------------------------3-----|
 
Verse
(palm muted)

e|---------------------------------------------------------------------------|
B|---------------------------------------------------------------------------|
G|-------------------------5-------------------------------------------------|
D|--7------5-------3-------5-x4---5------------------------------------------|
A|--7-x8---5-x8----3-x8----3------5-x4---------------------------------------|
E|--5------3-------1--------------3------------------------------------------|

Chorus ( do this 3 times )                (then this once)

e|-------------------------------|-----0------3------1---------------------------|
B|-------------------------------|-----1------3------1---------------------------|
G|--9--9/-5--5----4------2-------|-----2-x8---0-x8---2-hold----------------------|
D|--x--x--x--x----5-x8---3-x8----|-----2------0------3---------------------------|
A|--7--7/-3--3----5------3-------|-----0------2------3---------------------------|
E|----------------3------1-------|------------3------1---------------------------|

Bridge
 Rhythm ( Listen for rhythm) do this 3 times
then the next part 3 times. 

e|--0-----1-----0---------------------------|----------------------------1--------|
B|--1-----1-----1-----1---------------------|----------------------------1--------|
G|--2-x2--3-x2--0-x2--0-x1---5----4---------|------------9---/-10\--9----3-x2-----|
D|--2-----2-----2-----0------x-x4-x-x4------|-------3----x-4-/-x-\--x----2--------|
A|--0-----2-----3-----2------3----2---------|---3---5----7---/-8-\--7----2--------|
E|--------1---------------------------------|---5------------------------1--------|

Ending
(listen for rhythm)

e|---0-----3-----1~------------------------------------------------------------|
B|---1-----3-----1~------------------------------------------------------------|
G|---2-----0-----2~------------------------------------------------------------|
D|---2-----0-----3~------------------------------------------------------------|
A|---0-----2-----3~------------------------------------------------------------|
E|---------3-----1~------------------------------------------------------------|

----------------------------------------------------------------------------------------------
K so these are the lead parts.Its all i had time for.

Intro

e|-------------------8-8---------------------------------------------------------|
B|---8---5---5--8/10-------8---8---6---6----5--8--5-----5----------------8----0--|
G|---5---5---5---------------5---5---5---5--5--5--5-------7---5---5--5h7---7--0--|
D|----------------------------------------------------------------3--------------|
A|-------------------------------------------------------------------------------|
E|-------------------------------------------------------------------------------|

Verse
 
e|--------------3-------------------------------------------------|------------------|-------------3---|--------------------|
B|--0h1p0h1p0h1-----only-pick-once------0h1p0h1p0h1-------1p0h1p0-|----0---3-1-0-----|--1p0-3p0--1-----|--0--3--0--0--1--0--|
G|--------------------------------------------------2-------------|--0---0-----------|-----------------|--0--0--0--0--0--0--|
D|----------------------------------------------------------------|------------------|-----------------|--------------------|
A|----------------------------------------------------------------|------------------|-----------------|--------------------|
E|----------------------------------------------------------------|------------------|-----------------|--------------------|


And thats it. I hope you enjoyed it!


Song Order

-Intro
-verse x4
-chorus x3 then second part of the chorus
-Intro
-verse x4
-chorus x3 then second part
-bridge ( outro )




| /  slide up
| \  slide down
| h  hammer-on
| p  pull-off
| ~  vibrato
| +  harmonic
| x  Mute note
===============================================================================
            
Submit corrections

comments powered by Disqus
↑ Back to top | Hot Water Music Tabs for Seein' Diamonds. Lyrics for acoustic guitar and electric guitar. Tablatures and chords are parodies/interpretations of the original songs. You may use it for private study, scholarship, research or language learning purposes only