» » »

Hot Water Music, Remedy Bass tabs (ver.1)

Artists:  A B C D E F G H I J K L M N O P Q R S T U V W X Y Z # 

Remedy Bass tabs (ver.1)

Hot Water Music Tabs
Rating:
0/5 (0 votes)
Remedy lessons Tabs too difficult? Try these video lessons and learn fast
                One of the best songs I've ever heard, the powerful sound combined with the
narrative lyrics of a man waking up after a real - or perhaps emotional - accident
and trying to get aware of his situation...listen to it! :D
Plz rate this tab!!!

Intro:
No bass

Verse1:										   
G |--------|--------|--------|--------|                                      
D |--------|--------|--------|--------|                                      
A |44444---|--------|--------|-----224| 
E |-----002|22222002|22222440|00000---|                                      
   1 2 3 4  1 2 3 4  1 2 3 4  1 2 3 4 
                                         
repeat 5x then replace last bar with bridge bar:
..|--------|
..|--------|
..|--------| 1x
..|00000000|
   1 2 3 4

Chorus1:
G |--------|--------|--------|--------| 1st time
D |--------|----4444|22221111|4411----|
A |--------|2222----|--------|----4422|
E |44444444|--------|--------|--------|
   1 2 3 4  1 2 3 4  1 2 3 4  1 2 3 4
                           ..|--------|last bar 2nd time
                           ..|2211----|
                           ..|----4422|
                           ..|--------|
                              1 2 3 4

Verse2: repeat Verse1 2 times
Then:
ā€žIā€™m down, cut and bound..ā€œ
G |--------|--------|--------|--------|             
D |--------|--------|--------|--------|            
A |4-4\----|--------|--------|-----224| 
E |--------|22222002|22222440|00000---|             
   1 2 3 4  1 2 3 4  1 2 3 4  1 2 3 4
then repeat verse2 above (+bridge bar) 1x

Chorus2: repeat Chorus1 4 times
Then:
G |--------|-----------|     
D |--------|-----------|          
A |--------|11-11--\\--|
E |4-4---//|-----------|
   1 2 3 4  1  2  3  4  

Solo:
G |--------|--------|--------|--------|--------|--------|     
D |--------|--------|--------|--------|--------|--------|    
A |--------|--------|--------|--------|--------|--------|
E |55555555|22222222|44444444|55555555|22222222|22222222|             
   1 2 3 4  1 2 3 4  1 2 3 4  1 2 3 4  1 2 3 4  1 2 3 4  

G |--------|--------|--------|--------|--------|--------|     
D |--------|--------|--------|--------|--------|--------|    
A |--------|--------|--------|--------|--------|--------|
E |44444444|55555555|22222222|22222222|--------|--------|             
   1 2 3 4  1 2 3 4  1 2 3 4  1 2 3 4  1 2 3 4  1 2 3 4   

G |--------|--------|--------|--------|     
D |--------|--------|--------|4444_---|   
A |--------|--------|--------|-----642|
E |44444444|55555555|2_22222/|--------|           
   1 2 3 4  1 2 3 4  1 2 3 4  1 2 3 4  

End: 
G |--------|--------|--------|--------|     
D |--------|--------|-----12-|-----12-|    
A |-----67-|-----67-|--------|--------| 4x
E |4-444---|5-555---|2-222---|2-222---|       
   1 2 3 4  1 2 3 4  1 2 3 4  1 2 3 4   
Then:
G |--------|-----------|     
D |--------|-----------|          
A |--------|11-11--\\--|
E |4-4---//|-----------|
   1 2 3 4  1  2  3  4
            

comments powered by Disqus
↑ Back to top | Hot Water Music Bass for Remedy. Lyrics for acoustic guitar and electric guitar. Tablatures and chords are parodies/interpretations of the original songs. You may use it for private study, scholarship, research or language learning purposes only