» » »

Poison Bass tabs (ver.1)

Artists:  A B C D E F G H I J K L M N O P Q R S T U V W X Y Z # 

Poison Bass tabs (ver.1)

Hot Water Music
Rating:
5/5 (2 votes)

Tabs too difficult? Try these video lessons and learn fast.
                Band: Hot Water Music
Bassist: Jason Black

VERSE

G|-----------------|-----------------|-----------------|-----------------|
D|-----------------|-----------------|-----------------|-----------------|
A|---2-------------|-----------------|-----------------|-----------------|
E|-0---0-----------|-----------------|-----------------|-----------------|
   1 + 2 + 3 + 4 +   1 + 2 + 3 + 4 +   1 + 2 + 3 + 4 +   1 + 2 + 3 + 4 +

G|-----------------|-----------------|-----------------|-----------------|
D|-----------------|-----------------|-----------------|-----------------|
A|---2-------------|-----------------|-----------------|-----------------|
E|-0---0-----------|-----------------|-----------------|-----------------|
   1 + 2 + 3 + 4 +   1 + 2 + 3 + 4 +   1 + 2 + 3 + 4 +   1 + 2 + 3 + 4 +

G|-----------------|-----------------|-----------------|---------4h5-4---|
D|-----------------|-----------------|-----4-5-----5-4-|-----4h5-------5-|
A|-2-2-2-2-2-2-2-2-|-3-3-3-3-3-3-3-3-|-5-5-----3-3-----|-2-2-------------|
E|-----------------|-----------------|-----------------|-----------------|
   1 + 2 + 3 + 4 +   1 + 2 + 3 + 4 +   1 + 2 + 3 + 4 +   1 + 2 + 3 + 4 +

G|-----------------|-----------------|-----------------|------------------|-----------------||
D|-----------------|-----------------|-----------------|------------------|/9-9-9-9-9-7-----||
A|-2-2-2-2-2-2-2-2-|-3-3-3-3-3-3-3-3-|-5-5-5-5-3-3-3-3-|-2-2-2-2-2-2-2-5/7|-------------9-7-||
E|-----------------|-----------------|-----------------|------------------|-----------------||
   1 + 2 + 3 + 4 +   1 + 2 + 3 + 4 +   1 + 2 + 3 + 4 +   1 + 2 + 3 + 4 +    1 + 2 + 3 + 
+

VERSE

G|-----------------|-----------------|-----------------|-----------------|
D|-----------------|-----------------|-----------------|-----------------|
A|-----------------|---------5-5-5-5-|-2-2-2-2-2-2-2-2-|-3-3-3-3-3-3-----|
E|-0-0-0-0-0-0-0-0-|-3-3-3-3---------|-----------------|-------------3-2-|
   1 + 2 + 3 + 4 +   1 + 2 + 3 + 4 +   1 + 2 + 3 + 4 +   1 + 2 + 3 + 4 +

G|-----------------|-----------------|-----------------|-----------------|
D|-----------------|-----------------|-----------------|-----------------|
A|-----------------|---------5-5-5-5-|-2-2-2-2-2-2-2-2-|-3-3-3-3-3-3-3-3-|
E|-0-0-0-0-0-0-0-0-|-3-3-3-3---------|-----------------|-----------------|
   1 + 2 + 3 + 4 +   1 + 2 + 3 + 4 +   1 + 2 + 3 + 4 +   1 + 2 + 3 + 4 +

G|-----------------|-----------------|-----------------|---------4h5-4---|
D|-----------------|-----------------|-----4-5-----5-4-|-----4h5-------5-|
A|-2-2-2-2-2-2-2-2-|-3-3-3-3-3-3-3-3-|-5-5-----3-3-----|-2-2-------------|
E|-----------------|-----------------|-----------------|-----------------|
   1 + 2 + 3 + 4 +   1 + 2 + 3 + 4 +   1 + 2 + 3 + 4 +   1 + 2 + 3 + 4 +

G|-----------------|-----------------|-----------------|------------------|-----------------||
D|-----------------|-----------------|-----------------|------------------|-7-9-9-9-9-7-5-0-||
A|-2-2-2-2-2-2-2-2-|-3-3-3-3-3-3-3-3-|-5-5-5-5-3-3-3-3-|-2-2-2-2-2-2-2-5/7|-----------------||
E|-----------------|-----------------|-----------------|------------------|-----------------||
   1 + 2 + 3 + 4 +   1 + 2 + 3 + 4 +   1 + 2 + 3 + 4 +   1 + 2 + 3 + 4 +    1 + 2 + 3 + 
+

CHORUS

G|-----------------|-----------------|-----------------|-----------------|
D|-2-2-2-2-2-2-2-2-|-5-5-4-4-2-2-4-4-|-----------------|-5-5-4-4-2-2-4-4-|
A|-----------------|-----------------|-2-2-2-2-2-2-2-2-|-----------------|
E|-----------------|-----------------|-----------------|-----------------|
   1 + 2 + 3 + 4 +   1 + 2 + 3 + 4 +   1 + 2 + 3 + 4 +   1 + 2 + 3 + 4 +

G|-----------------|-----------------|-----------------|-----------------|
D|-----------------|-5-5-4-4-2-2-4-4-|-0-0-0-0-0-0-4-5-|-5-0-5-0-7-5-4-0-|
A|-3-3-3-3-3-3-3-3-|-----------------|-----------------|-----------------|
E|-----------------|-----------------|-----------------|-----------------|
   1 + 2 + 3 + 4 +   1 + 2 + 3 + 4 +   1 + 2 + 3 + 4 +   1 + 2 + 3 + 4 +

G|-----------------|-----------------|-----------------|-----------------|
D|-----------------|-5-5-4-4-2-2-4-4-|-----------------|-5-5-4-4-2-2-4-4-|
A|-----------------|-----------------|-2-2-2-2-2-2-2-2-|-----------------|
E|-0-0-0-0-0-0-0-0-|-----------------|-----------------|-----------------|
   1 + 2 + 3 + 4 +   1 + 2 + 3 + 4 +   1 + 2 + 3 + 4 +   1 + 2 + 3 + 4 +

G|-----------------|-----------------|-----------------|-----------------||
D|-----------------|-5-5-4-4-2-2-4-4-|-0-0-0-0-0-0-4-5-|-5-0-5-0-7-5-4-0-||
A|-3-3-3-3-3-3-3-3-|-----------------|-----------------|-----------------||
E|-----------------|-----------------|-----------------|-----------------||
   1 + 2 + 3 + 4 +   1 + 2 + 3 + 4 +   1 + 2 + 3 + 4 +   1 + 2 + 3 + 4 +

INTERLUDE

G|-----------------|-----------------|-----------------|-----------------||
D|-2-2-2-----------|-----------------|-----------------|-----------------||
A|-------0-2-2-2-2-|-3-3-3-3-5-5-5-0-|-2-2-2-----2---2-|-3-3--------(3)\\||
E|-----------------|-----------------|-----------------|-----------------||
   1 + 2 + 3 + 4 +   1 + 2 + 3 + 4 +   1 + 2 + 3 + 4 +   1 + 2 + 3 + 4 +

VERSE

G|-----------------|-----------------|-----------------|-----------------|
D|-----------------|-----------------|-----------------|-----------------|
A|-----------------|---------5-5-5-5-|-2-2-2-2-2-2-2-2-|-3-3-3-3-3-2-----|
E|-0-0-0-0-0-0-0-2-|-3-3-3-3---------|-----------------|-------------3-2-|
   1 + 2 + 3 + 4 +   1 + 2 + 3 + 4 +   1 + 2 + 3 + 4 +   1 + 2 + 3 + 4 +

G|-----------------|-----------------|-----------------|-----------------|
D|-----------------|-----------------|-----------------|-----------------|
A|-----------------|---------5-5-5-5-|-2-2-2-2-2-2-2-2-|-3-3-3-3-3-3-3-3-|
E|-0-0-0-0-0-0-0-2-|-3-3-3-3---------|-----------------|-----------------|
   1 + 2 + 3 + 4 +   1 + 2 + 3 + 4 +   1 + 2 + 3 + 4 +   1 + 2 + 3 + 4 +

G|-----------------|-----------------|-----------------|---------4h5-4---|
D|-----------------|-----------------|-----4-5-----5-4-|-----4h5-------5-|
A|-2-2-2-2-2-2-2-2-|-3-3-3-3-3-3-3-3-|-5-5-----3-3-----|-2-2-------------|
E|-----------------|-----------------|-----------------|-----------------|
   1 + 2 + 3 + 4 +   1 + 2 + 3 + 4 +   1 + 2 + 3 + 4 +   1 + 2 + 3 + 4 +

G|-----------------|-----------------|-----------------|------------------|-----------------||
D|-----------------|-----------------|-----------------|------------------|-7-9-9-9-9-7-5-0-||
A|-2-2-2-2-2-2-2-2-|-3-3-3-3-3-3-3-3-|-5-5-5-5-3-3-3-3-|-2-2-2-2-2-2-2-5/7|-----------------||
E|-----------------|-----------------|-----------------|------------------|-----------------||
   1 + 2 + 3 + 4 +   1 + 2 + 3 + 4 +   1 + 2 + 3 + 4 +   1 + 2 + 3 + 4 +    1 + 2 + 3 + 
+

CHORUS

G|-----------------|-----------------|-----------------|-----------------|
D|-2-2-2-2-2-2-2-2-|-5-5-4-4-2-2-4-4-|-----------------|-5-5-4-4-2-2-4-4-|
A|-----------------|-----------------|-2-2-2-2-2-2-2-2-|-----------------|
E|-----------------|-----------------|-----------------|-----------------|
   1 + 2 + 3 + 4 +   1 + 2 + 3 + 4 +   1 + 2 + 3 + 4 +   1 + 2 + 3 + 4 +

G|-----------------|-----------------|-----------------|-----------------|
D|-----------------|-5-5-4-4-2-2-4-4-|-0-0-0-0-0-0-4-5-|-0-0-5-0-7-5-4-0-|
A|-3-3-3-3-3-3-3-3-|-----------------|-----------------|-----------------|
E|-----------------|-----------------|-----------------|-----------------|
   1 + 2 + 3 + 4 +   1 + 2 + 3 + 4 +   1 + 2 + 3 + 4 +   1 + 2 + 3 + 4 +

G|-----------------|-----------------|-----------------|-----------------|
D|-----------------|-5-5-4-4-2-2-4-4-|-----------------|-5-5-4-4-2-2-4-4-|
A|-----------------|-----------------|-2-2-2-2-2-2-2-2-|-----------------|
E|-0-0-0-0-0-0-0-0-|-----------------|-----------------|-----------------|
   1 + 2 + 3 + 4 +   1 + 2 + 3 + 4 +   1 + 2 + 3 + 4 +   1 + 2 + 3 + 4 +

G|-----------------|-----------------|-----------------|-----------------|
D|-----------------|-5-5-4-4-2-2-4-4-|-0-0-0-0-0-0-4-5-|-0-0-5-0-7-5-4-0-|
A|-3-3-3-3-3-3-3-3-|-----------------|-----------------|-----------------|
E|-----------------|-----------------|-----------------|-----------------|
   1 + 2 + 3 + 4 +   1 + 2 + 3 + 4 +   1 + 2 + 3 + 4 +   1 + 2 + 3 + 4 +

G|-----------------|-----------------|-----------------|-----------------|
D|-2-2-2-2-2-2-2-2-|-5-5-4-4-2-2-4-4-|-----------------|-5-5-4-4-2-2-4-4-|
A|-----------------|-----------------|-2-2-2-2-2-2-2-2-|-----------------|
E|-----------------|-----------------|-----------------|-----------------|
   1 + 2 + 3 + 4 +   1 + 2 + 3 + 4 +   1 + 2 + 3 + 4 +   1 + 2 + 3 + 4 +

G|-----------------|-----------------|-----------------|-----------------|
D|-----------------|-5-5-4-4-2-2-4-4-|-0-0-0-0-0-0-4-5-|-0-0-5-0-7-5-4-0-|
A|-3-3-3-3-3-3-3-3-|-----------------|-----------------|-----------------|
E|-----------------|-----------------|-----------------|-----------------|
   1 + 2 + 3 + 4 +   1 + 2 + 3 + 4 +   1 + 2 + 3 + 4 +   1 + 2 + 3 + 4 +

G|-----------------|-----------------|-----------------|-----------------|
D|-----------------|-5-5-4-4-2-2-4-4-|-----------------|-5-5-4-4-2-2-4-4-|
A|-----------------|-----------------|-2-2-2-2-2-2-2-2-|-----------------|
E|-0-0-0-0-0-0-0-0-|-----------------|-----------------|-----------------|
   1 + 2 + 3 + 4 +   1 + 2 + 3 + 4 +   1 + 2 + 3 + 4 +   1 + 2 + 3 + 4 +

G|-----------------|-----------------|---------2-2-----|-----------------||
D|-----------------|-5-5-4-4-2-2-4-4-|-0-0-0-0-0-0-4-5-|-5-0-5-0-7-5-4-0-||
A|-3-3-3-3-3-3-3-3-|-----------------|-----------------|-----------------||
E|-----------------|-----------------|-----------------|-----------------||
   1 + 2 + 3 + 4 +   1 + 2 + 3 + 4 +   1 + 2 + 3 + 4 +   1 + 2 + 3 + 4 +

OUTRO


G|-----------------|-----------------|-----------------|-----------------|
D|-2-2-2-----------|-----------------|-----------------|-----------------|
A|-------0-2-2-2-0-|-3-3-3-0-5-5-5-0-|-7-7-7-0-2-2-2-0-|-3-3-3-0---------|
E|-----------------|-----------------|-----------------|---------3-3-2-2-|
   1 + 2 + 3 + 4 +   1 + 2 + 3 + 4 +   1 + 2 + 3 + 4 +   1 + 2 + 3 + 4 +

G|-----------------|-----------------|-----------------|-----------------|
D|-----------------|-----------------|-----------------|-----------------|
A|-7-7-7-0-2-2-2-0-|-3-3-3-0-5-5-5-0-|-2-2-2-2-2-2-2-2-|-2-2-0-0---------|
E|-----------------|-----------------|-----------------|---------3-3-2-2-|
   1 + 2 + 3 + 4 +   1 + 2 + 3 + 4 +   1 + 2 + 3 + 4 +   1 + 2 + 3 + 4 +

G|-----------------|-----------------|-----------------|-----------------|
D|-----------------|-----------------|-----------------|-----------------|
A|-7-7-7-0-2-2-2-2-|-3-3-3---5-5-5---|-7-7-7-0-2-2-2-2-|-3-3-3-3---------|
E|-----------------|-----------------|-----------------|---------3-3-2-2-|
   1 + 2 + 3 + 4 +   1 + 2 + 3 + 4 +   1 + 2 + 3 + 4 +   1 + 2 + 3 + 4 +

G|-----------------|-----------------|-----------------|-----------------|
D|-----------------|-----------------|-----------------|-----------------|
A|-7-7-7-0-2-2-2-2-|-3-3-3-3-5-5-5-0-|-2-2-2-2-2-2-2-2-|-2-2-0-0---------|
E|-----------------|-----------------|-----------------|---------3-3-2-2-|
   1 + 2 + 3 + 4 +   1 + 2 + 3 + 4 +   1 + 2 + 3 + 4 +   1 + 2 + 3 + 4 +

G|-----------------|-----------------||
D|-----------------|-----------------||
A|-----------------|-----------------||
E|-0---------------|-----------------||
   1 + 2 + 3 + 4 +   1 + 2 + 3 + 4 +
            
Tabs too difficult? Try these video lessons and learn fast.


comments powered by Disqus
↑ Back to top | Tablatures and chords are parodies/interpretations of the original songs. You may use it for private study, scholarship, research or language learning purposes only