» » »

No Division Tabs (ver.1)

Artists:  A B C D E F G H I J K L M N O P Q R S T U V W X Y Z # 

No Division Tabs (ver.1)

Hot Water Music
Rating:
5/5 (2 votes)

Hard to play? Try these video lessons and learn fast.
                Hot Water Music - No Division

Instrument: Guitar
Tuning: eBGDAE



Intro

e||----------------------------|
B||----------------------------|
G||-9----------9---------9-----|
D||-9-9-7------9-9-11-7--9-9-7-|
A||-7-9-7-x4---7-9-11-7--7-9-7-|
E||---7-5--------7-9--5----7-5-|

2. Guitar

e||-----------------------------------------------------|
B||-----------------------------------------------------|
G||-9--9--9--9--11-11-11-13--6--6--6--6--14--14--14--13-|
D||-x--x--x--x--x--x--x--x---x--x--x--x--x---x---x---x--|
A||-7--7--7--7--9--9--9--11--4--4--4--4--12--12--12--11-|
E||-----------------------------------------------------|

e||-----------------------------------------------------|
B||-----------------------------------------------------|
G||-9--9--9--11-8--8--8--6--14-14-14-14-16-16-16-16-----|
D||-x--x--x--x--x--x--x--x--x--x--x--x--x--x--x--x------|
A||-7--7--7--9--6--6--6--4--12-12-12-12-14-14-14-14-----|
E||-----------------------------------------------------|


Verse

1. Guitar
e||-----------------|
B||-----------------|
G||-9-9-9-9-9-9-9-9-|
D||-x-x-x-x-x-x-x-x-|
A||-7-7-7-7-7-7-7-7-|
E||-----------------|

2. Guitar
e||----------------------------|
B||----------------------------|
G||-9----------9---------9-----|
D||-9-9-7------9-9-11-7--9-9-7-|
A||-7-9-7-x2---7-9-11-7--7-9-7-|
E||---7-5--------7-9--5----7-5-|




1. Chorus

e||---------|
B||---------|
G||---------|
D||-4-7-2-2-|
A||-4-7-2-2-|
E||-2-5-0-0-|


2. Chorus

e||-------------------------|
B||-------------------------|
G||-----------------6-------|
D||-4-7-2-2-----4-7-6-7-4-7-|
A||-4-7-2-2-x2--4-7-4-7-4-7-|
E||-2-5-0-0-----2-5---5-2-5-|


Outro

e||------------------------------|
B||------------------------------|
G||------------------------------|
D||-2-2-2-22-2-2-2-22-2-2-2-22-2-|
A||-2-2-2-22-2-2-2-22-2-2-2-22-2-|
E||-0-0-0-00-0-0-0-00-0-0-0-00-0-|
            
Hard to play? Try these video lessons and learn fast. | Correct




comments powered by Disqus
↑ Back to top | Tablatures and chords are parodies/interpretations of the original songs. You may use it for private study, scholarship, research or language learning purposes only