» » »

Hot Water Music, Never Ender Tabs (ver.1)

Artists:  A B C D E F G H I J K L M N O P Q R S T U V W X Y Z # 

Never Ender Tabs (ver.1)

Hot Water Music Tabs
 Rating:
4/5 (4 votes)
Never Ender lessons Tabs too difficult? Try these video lessons and learn fast
                -------------------------------------------------------------------------------
-------------------------------------------------------------------------------


Tuning: Standard [EADGBE]


e|----------------------------|
B|----------------------------|
G|------6-------6-------6-----|
D|----7-------7-------7-------|
A|--5-------5-------5---------|
E|----------------------------|


e|--------------------------------------------------------------------------|
B|--------------------------------------------------------------------------|
G|--7-----6-----------------------------------------------------------------|
D|--7--4--6-----------------------------------------------------------------|
A|--5--4--4-----------------------------------------------------------------|
E|-----2--------------------------------------------------------------------|


e|------------------------------------------------------------------|
B|------------------------------------------------------------------|
G|------7---------7-----------------------------6---------6---------|
D|----7---7-----7---7-------4---------4-------6---6-----6---6-------|
A|--5-------5-5-------5---4---4-----4---4---4-------4-4-------4-----|
E|----------------------2-------2-2-------2-------------------------|


e|-----------------|
B|-----------------|
G|-----4--7--------|
D|--4--4--7--2-----|
A|--4--2--5--2-----|
E|--2--------0-----|


e|-------------------|
B|-------------------|
G|--2--4--6----------|
D|--2--4--6--4-2-----|
A|--0--2--4--4-2-----|
E|-----------2-0-----|


************************************
            
Submit corrections

comments powered by Disqus
↑ Back to top | Hot Water Music Tabs for Never Ender. Lyrics for acoustic guitar and electric guitar. Tablatures and chords are parodies/interpretations of the original songs. You may use it for private study, scholarship, research or language learning purposes only