» » »

Moonpies For Misfits Bass tabs (ver.1)

Artists:  A B C D E F G H I J K L M N O P Q R S T U V W X Y Z # 

Moonpies For Misfits Bass tabs (ver.1)

Hot Water Music
Rating:
0/5 (0 votes)

Tabs too difficult? Try these video lessons and learn fast.
                Moonpies for misfits

0:00-0:36
||---------------7p6--------9--||
||-------9p7-------------7h9---||
||--0-00-----0-0-----0-0-----7-||
||-----------------------------||

0:37-1:06
||--------------|---------------|----------------------||
||--------------|-------7h9-9-9-|----------------------||
||-99-9-912-11-9|-77-7-7--------|-55-5-555-5-555-5-557-||
||--------------|---------------|----------------------||

||--------------|---------------|----------------------||
||--------------|-------7h9-9-9-|-------76--------76/9-||
||-99-9-912-11-9|-77-7-7--------|-55-5-5--7-55-5-5-----||
||--------------|---------------|----------------------||

||--------------|---------------|-----------------------||
||--------------|-------7h9-9-9-|-----------------------||
||-99-9-912-11-9|-77-7-7--------|-55-5-555-5-555-5/9-7-5||
||--------------|---------------|-----------------------||

||--------------|---------------|-----------------------||
||--------------|-------7h9-9-9-|-7~--------------------||
||-99-9-912-11-9|-77-7-7-------7|-5~--------------------||
||--------------|---------------|-----------------------||

1:07-1:36
||---------------7p6--------9--||
||-------9p7-------------7h9---||
||--0-00-----0-0-----0-0-----7-||
||-----------------------------||

1:37-2:04
||--------------|---------------|----------------------||
||--------------|-------7h9-9-9-|----------------------||
||-99-9-912-11-9|-7--7-7--------|-55-5-555-5-555-5-557-||
||--------------|---------------|----------------------||

||--------------|---------------|----------------------||
||--------------|-------7h9-9-9-|-------76--------76/9-||
||-99-9-912-11-9|-77-7-7--------|-55-5-5--7-55-5-5-----||
||--------------|---------------|----------------------||

||--------------|---------------|-----------------------||
||--------------|-------7h9-9-9-|-----------------------||
||-99-9-912-11-9|-77-7-7--------|-55-5-555-5-555-5/9-7-5||
||--------------|---------------|-----------------------||

||--------------|---------------|-------------------------||
||--------------|-------7h9-9-9-|-------------------------||
||9-9-9-912-11-9|7-7-7-7-------7|-5-5-5-5-5-5-54-4-4-2-2-2||
||--------------|---------------|-------------------------||

2:05-2:35

||--------|-----|-----|-----|-----|-----|-----|-----|
||3:------|-----|-----|-----|-----|-----|-----|-----|
||4:-0-0-0|0-0-0|2-2-2|2h4~-|-----|-----|5-5-5|5-4-2|---
||--------|-----|-----|-----|2-2-2|2-2-2|-----|-----|

||--------|-----|-----|-----|-----|-----|-----|-----|
||3:------|--2--|-----|-----|-----|-----|-----|-----|
||4:-0-0-0|0---0|2-222|2h4~4|-----|-----|5-5-5|5-4-2|
||--------|-----|-----|-----|2-222|2-2-2|-----|-----|

||--------|-----|-----|-----|-----|-----|----7|-----|
||3:------|--2--|-----|-----|-----|-----|--7--|-----|
||4:-0-000|0--00|2-222|2h444|-----|-----|5----|5-4-2|
||--------|-----|-----|-----|2-222|2-2-2|-----|-----|

||--------|-----|-----|-----|-----|-----|-----|-----|
||3:------|-----|-----|-----|-----|-----|-----|-----|
||4:-0-0-0|00--0|2-222|2h4~4|-----|-----|5-5-5|5-4-2|
||--------|-----|-----|-----|2-222|2-2-2|-----|-----|

||--------|-----|-----|-----|-----|-----|-----|-----|
||3:------|-----|-----|-----|-----|-----|-----|-----|
||4:-0-0-0|00--0|2-222|2h4~4|-----|-----|5-5-5|5-4-2|
||--------|-----|-----|-----|2-222|2-2-2|-----|-----|


2:36-3:04
||-------------|-------------|-----------------------||
||-------------|-------------|-----------------------||
||-------------|-----0h2-2-2-|-5-4-0-5-4-0-5-4-0-/7-7||
||-22-2-25-4-2-|-0-00--------|-----------------------||


3:05-3:35
||-------------|------------|-----2~---2~---2~----2~---2~||
||-------------|------------|---2~---2~---2~----2~---2~--||
||-2-2-22-2--4-|-5-5-55-4-2-|-0~---0~---0~----0~---0~----||
||-------------|------------|----------------------------||

||-------------|-------------|-----2~---2~---2~----2~---2~||
||-------------|-------------|---2~---2~---2~----2~---2~--||
||-2-2-2-2-2-4-|-5-5-5-5-4-2-|-0~---0~---0~----0~---0~----||
||-------------|-------------|----------------------------||

||-------------|-------------|-----------|
||-------------|-------------|-----------|
||-2-2-2-2-2-4-|-5-5-5-5-4-2-|0~~~-------|
||-------------|-------------|-----------|
            
Tabs too difficult? Try these video lessons and learn fast.


comments powered by Disqus
↑ Back to top | Tablatures and chords are parodies/interpretations of the original songs. You may use it for private study, scholarship, research or language learning purposes only