» » »

Jack Of All Trades Tabs (ver.1)

Artists:  A B C D E F G H I J K L M N O P Q R S T U V W X Y Z # 

Jack Of All Trades Tabs (ver.1)

Hot Water Music
Rating:
5/5 (2 votes)

Hard to play? Try these video lessons and learn fast.
                'Jack Of All Trades' by Hot Water Music, from the album 'A Flight and A Crash'


[INTRO PT 1]

e|------------------------------------------------------------------------|
B|------------------------------------------------------------------------|
G|--9-9-9-9-9-9-9-9-------------------------------------------------------|
D|--9-9-9-9-9-9-9-9--9-9-9-9-9-7-7-11---11-11-11-11-11-11-11-11-11-11-11--|
A|--7-7-7-7-7-7-7-7--9-9-9-9-9-7-7-11---11-11-11-11-11-11-11-11-11-11-11--|
E|-------------------7-7-7-7-7-5-5-9----9--9--9--9--9--9--9--9--9--9--9---|

[INTRO PT 2]

Rhythm Guitar

e|------------------------------------------------------------------------|
B|------------------------------------------------------------------------|
G|--9-9-9-9-9-9-9-9-------------------------------------------------------|
D|--9-9-9-9-9-9-9-9--9-9-9-9-9-9-9-9--7-7-7-7-7-7-7-7--7-7-7-7-7-7-7-7----|
A|--7-7-7-7-7-7-7-7--9-9-9-9-9-9-9-9--7-7-7-7-7-7-7-7--7-7-7-7-7-7-7-7----|
E|-------------------7-7-7-7-7-7-7-7--5-5-5-5-5-5-5-5--5-5-5-5-5-5-5-5----|

Lead Guitar

e|-------------------------------------------------------------|
B|-------------------------------------------------------------|
G|--9-9--8--6--4-4--4/6\4----9-9--8--9--11-11--13--11--9/11\9--|
D|-------------------------------------------------------------|
A|-------------------------------------------------------------|
E|-------------------------------------------------------------|

[VERSE]

Same as the INTRO PT 2 Rhythm Guitar

[CHORUS]

e|-----------------------------------|
B|-----------------------------------|
G|-----------------------------------|
D|------------------9-9-9-9-9-9-9-9--|
A|------------------9-9-9-9-9-9-9-9--|
E|--5--7--4--0--0---7-7-7-7-7-7-7-7--|

[OUTRO]

e|--------------------------------------------------------|
B|--------------------------------------------------------|
G|--------------------------------------------------------|
D|--9-9-9-9-9--9-9-9-9-9--9-9--9-9-9-9-9--9-9-9-9-9--9-9--|
A|--9-9-9-9-9--9-9-9-9-9--9-9--7-7-7-7-7--7-7-7-7-7--7-7--|
E|--7-7-7-7-7--7-7-7-7-7--7-7--5-5-5-5-5--5-5-5-5-5--5-5--|

(can be played with two guitars, one playing an E5 throughout, whilst other plays B5 and A5)

End on 

e|-----|
B|-----|
G|-----|
D|--9--|
A|--9--|
E|--7--|

Structure-

INTRO PT 1
INTRO PT 2
VERSE
CHORUS
INTRO PT 2
VERSE
CHORUS
OUTRO
            
Hard to play? Try these video lessons and learn fast. | Correct




comments powered by Disqus
↑ Back to top | Tablatures and chords are parodies/interpretations of the original songs. You may use it for private study, scholarship, research or language learning purposes only