» » »

Hot Water Music, In The Gray Bass tabs (ver.1)

Artists:  A B C D E F G H I J K L M N O P Q R S T U V W X Y Z # 

In The Gray Bass tabs (ver.1)

Hot Water Music Tabs
Rating:
0/5 (0 votes)
Hard to play? Try these video lessons and learn fast.
                Hot Water Music
A Flight And A Crash

ok i think it's 80 or 90% correct..

G------------------------------------------------|
D----------------------------7----7----7----7----|
A----------7---------------0---00---00---00--00--|
E--5-8-5-8-----0-5-0-5-77------------------------|

G------------------------------------------------|
D------------------------------------------------|
A------------------------------------------------|
E--444--444--444545577755------------------------|

G------------------------------------------------|
D----------------------------7---7---7---7---7---|
A----------7---------------0---0---0---0---0---0-|
E--5-8-5-8-----0-5-0-5-77------------------------|

G------------------------------------------------|
D------------------------------------------------|
A------------------------------------------------|
E--444--444--444545577755------------------------|


G---------------------------------------------------------------------------------------|
D---------------------------------------------------------------------------------------|
A---------------67--67--97--67--67--67--67976------66--7766779977555555-7-5-------------|
E--5555555555-00--00--00--00--00--00--00-----977777--77-----------------------7-5555555-|


please rate!
mgs.
            

comments powered by Disqus
↑ Back to top | Hot Water Music Bass for In The Gray. Lyrics for acoustic guitar and electric guitar. Tablatures and chords are parodies/interpretations of the original songs. You may use it for private study, scholarship, research or language learning purposes only