>
 >
Ink And Lead

Ink And Lead Guitar Tabs

Hot Water Music - Ink And Lead chords, tabs, tablatures, lyrics

Guitar lessons | Add/correct | Request | Top 50 tabs Artists:  A B C D E F G H I J K L M N O P Q R S T U V W X Y Z 0-9

Ink And Lead Guitar Tabs – Hot Water Music

CD, Sheet music, Poster

Do you like Ink And Lead? Share with your friends now
Tabs
-------------------------------------------------------------------------------
-------------------------------------------------------------------------------

Tuning:EADGBe

Guitar 1
 
Intro [0:00]
e|----------------------------|        |----------------|
B|----------------------------|        |---8--7-----7---|
G|------0------0-----0--------|        |---------7------| 
D|----4------5-------7--------| 4X     |----------------|
A|--2------3---------5--------|        |----------------|
E|----------------------------|        |----------------|



Verse  [0:14]
e|---------------------------------------------------------------------------|
B|---------------------------------------------------------------------------|
G|------0------0-----0------------0------0-----0---------4--0-----4----------|
D|----4------5-------7----------4------5-------7---------------4-------------|
A|--2------3---------5--------2------3---------5-----------------------------|
E|---------------------------------------------------------------------------|


e|---------------------------------------------------------------------------|
B|-------------------------------------------------------8--7-----7----------|
G|------0------0-----0------------0------0-----0---------------7-------------|
D|----4------5-------7----------4------5-------7-----------------------------|
A|--2------3---------5--------2------3---------5-----------------------------|
E|---------------------------------------------------------------------------|



PRE-CHORUS [0:55]
e|----------------------------------------|
B|----------------------------------------|
G|--999999999999999999999999--11111111----|
D|----------------------------------------|
A|--777777777777777777777777--99999999----|
E|----------------------------------------|


e|---------------------------------------------------------------------------|
B|---------------------------------------------------------------------------|
G|--9999999999999999--99-77-99-77-99-1212-9999-------------------------------|
D|---------------------------------------------------------------------------|
A|--7777777777777777--77-55-77-55-77-1010-7777-------------------------------|
E|---------------------------------------------------------------------------|


e|---------------------------------------------------------------------------|
B|---------------------------------------------------------------------------|
G|--9999999999999999--7777777777777777--9999999999999999--1212121212121212---|
D|---------------------------------------------------------------------------|
A|--7777777777777777--5555555555555555--7777777777777777--1010101010101010---|
E|---------------------------------------------------------------------------|


VERSE [1:23]

PRE-CHORUS [1:51]


CHORUS [2:19]
e|----------------------------------------------------------------------------|
B|----------------------------------------------------------------------------|
G|----------------------------------------------------------------------------|
D|--7777777777777777--1010101010101010--5555555555555555--5555555555555555----|
A|--7777777777777777--1010101010101010--5555555555555555--5555555555555555----|
E|--5555555555555555--8888888888888888--3333333333333333--3333333333333333----|


e|----------------------------------------------------------------------------| 
B|----------------------------------------------------------------------------| 
G|----------------------------------------------------------------------------| 
D|--7777777777777777--1010101010101010--5555555555555555--5555555555555555----| 
A|--7777777777777777--1010101010101010--5555555555555555--5555555555555555----| 
E|--5555555555555555--8888888888888888--3333333333333333--2222222222222222----| 


PRE-CHORUS [2:54]

OUTRO [3:21]								       
e|---------------------------------------------------------------------------| 
B|---------------------------------------------------------------------------| 
G|---------------------------------------------------------------------------| 
D|--------------------7777777777777777--5555555555555555--7777777777777777---| 
A|--2222222222222222--5555555555555555--3333333333333333--5555555555555555---| 
E|--0000000000000000---------------------------------------------------------| 



Guitar 2

Verse  [0:14]
e|---------------------------------------------------------------------------|
B|---------------------------------------------------------------------------|
G|---------------------------------------------------------------------------|
D|-444--999--7777777777--444--555--------------------------------------------| 
A|-222--777--5555555555--222--333--555--7777777------------------------------|
E|---------------------------------333--5555555------------------------------|

e|----------------------------------------|
B|----------------------------------------|
G|-----0------0-----0---------------------|
D|---4------5-----5-----------------------|
A|-2------3-------------------------------|
E|--------------3-----5-------------------|



PRE-CHORUS  [0:55]
e|------------------------------------------------------------------------|
B|-----------8-5-5/7--7\--------------------------------------------------|
G|------4h7----------------4/7-2--2\0--9-999-7--0-------9-999-7-----------|
D|--5h7-----------------------------------------------------------5---7---|
A|------------------------------------------------------------------------|
E|------------------------------------------------------------------------|

e|------------------------------------------------------------------------|
B|-----------8-5-5/7--7\--------------------------------------------------|
G|------4h7----------------4/7-2--2\0--9-999-7--0--------11----0----------|
D|--5h7-------------------------------------------------------------------|
A|------------------------------------------------------------------------|
E|------------------------------------------------------------------------|


VERSE [1:23]

PRE-CHORUS [1:51]



CHORUS [2:19]
e|-------10-7-------7---------------------|
B|--7h8--------7h8----8--7h8-10-----------|
G|----------------------------------------|
D|----------------------------------------|
A|----------------------------------------|
E|----------------------------------------|


PRE-CHORUS [2:54]


OUTRO [3:21]
e|-------10-7-------7---------------------|
B|--7h8--------7h8----8--7h8-10-----------|
G|----------------------------------------|
D|----------------------------------------|
A|----------------------------------------|
E|----------------------------------------|


end on this
e|-------10-7-------7---------------------|
B|--7h8--------7h8----8-8/10\8------------|
G|----------------------------------------|
D|----------------------------------------|
A|----------------------------------------|
E|----------------------------------------|


| /  slide up
| \  slide down
| h  hammer-on
| p  pull-off
| ~  vibrato
| +  harmonic
| x  Mute note
===============================================================================





Comments


Popular Hot Water Music tabs & chords
Alright For Now Bass Tabs
Swinger Bass Tabs
Wayfarer Bass Tabs
Bleeder Chords
Alachua Tabs
Drag My Body Tabs
Giver Tabs
The Sense Tabs
Bleeder Ukulele
The Traps Ukulele


Song lyrics



↑ Back to top | Tablatures and chords are parodies/interpretations of the original songs. You may use it for private study, scholarship, research or language learning purposes only
© 2014 AZChords.com Contact us | Privacy policy | DMCA | Add/correct tabs | Request tabs | Top 50 tabs