» » »

Freight Linner Bass tabs (ver.1)

Artists:  A B C D E F G H I J K L M N O P Q R S T U V W X Y Z # 

Freight Linner Bass tabs (ver.1)

Hot Water Music
Rating:
0/5 (0 votes)

Tabs too difficult? Try these video lessons and learn fast.
                Another great song from a great band. they are in fact the best band around.

anyway here is the tab as allaways should be correct but if im wrong please correct me..

enjoi and rock out.

INTRO
G--------------
D--------------    x4
A--------------
E-999-555-0000-



G-----------------------------------------------------------------------
D-----------------------------------------------------------------------
A-7777777777-44444444444h64-----------------------------------------7-7-7-7
E---------------------------7-55555555-77777777-4444444444-555-444-0-0-0-0-

G-------------------------------------
D-------------------------------------
A-777777-44444------------------------
E--------------5555555-4-5-777--------



G-----------------------------
D-----------------------------
A----------------------------- x2
E-999-555-000-999-555-000-222-



G-----------------------------------------------------------------------
D-----------------------------------------------------------------------
A-7777777777-44444444444h64-----------------------------------------7-7-7-7
E---------------------------7-55555555-77777777-4444444444-555-444-0-0-0-0-

G-------------------------------------
D------------------------------------- x4
A-777777-44444------------------------
E--------------5555555-4-5-777--------


G-----------------------------
D-----------------------------
A----------------------------- x4
E-999-555-000-999-555-000-222-



G-----------------------
D-----------------------  x3
A-44444------44444------
E-------55555-----22222-



G----------------------------------
D----------99h119---------------2--
A-77-44-00-------11-77----00-2-4-4-   x3 
E----------------------44----------

G----------------
D----------------
A-77-----------7--       end on E-9 and let ring
E----44-55-7-9--99-

right thats it e-mail me for any reason
and Aberdeen rocks.

more tabs on the way...
            
Tabs too difficult? Try these video lessons and learn fast.


comments powered by Disqus
↑ Back to top | Tablatures and chords are parodies/interpretations of the original songs. You may use it for private study, scholarship, research or language learning purposes only