» » »

Hot Water Music, Freightliner Bass tabs (ver.1)

Artists:  A B C D E F G H I J K L M N O P Q R S T U V W X Y Z # 

Freightliner Bass tabs (ver.1)

Hot Water Music Tabs
 Rating:
4.3/5 (6 votes)
Freightliner lessons Tabs too difficult? Try these video lessons and learn fast
                22/10/2009           -{cLifFd!v3R}-

Hot Water Music
Fuel For The Hate Game
Jason Black

(Intro x4)       (0.01)
G]----------------------]
D]----------------------]
A]444000----------------]
E]------0~--------------]



(Solo/Verse x2) (0.12)
G]------------------------------------------------------------------------]
D]------------------------------------------------------------------------]
A]7777777777777777\4444444444444h6p4--------------------------------------]
E]----------------------------------75555555555555555/7777777777777777\---]
(Cont.)
G]------------------------------------------------------------------------]
D]------------------------------------------------------------------------]
A]---------------------------7-7-7--7774440-000000002h4p2222222222222222/-]
E]44444444444444447775550~----0-0-0~--------------------------------------]
                                                                     /
               Slide Up To The 7th Fret When Repeating This Bassline/


(Chorus x4)    (0.56)
G]--------------------]
D]--------------------]
A]444000--------------]
E]------0000000000----]


(Solo/Verse x2)(1.07)
(Chorus x2)    (1.52) 
G]----------------|----------------|----------------|------------------]
D]----------------|----------------|----------------|------------------]
A]444000----------|444000----------|444000----------|444000------------]
E]------0000000000|------0000002222|------0000000000|------0000000000--]
        

(Bridge)       (2.13)                    (2.36)
G]-----------------------------------[--]------]
D]-----------------------------------[x4]------]
A]444444440000000044444444-----------[--]4.----]
E]------------------------00002222---[--]------]


(Pause) Just Guitars For A Bit.
(Outro x3)     (2.47)
G]-------------242---------------------]
D]------------2---4---------------2----]
A]44-44-22-00------------00-22-024-4---]
E]-----------------00-00---------------]

(Ending)       (3.04)
G]-------------242-------------------------]
D]------------2---4---------------2--------]
A]44-44-22-00------------0~-2~-024-4-4~----]
E]-----------------0~-0~-------------------]

Thanks Guys, Hope you Enjoy It :) peace out
            
Submit corrections

comments powered by Disqus
↑ Back to top | Hot Water Music Bass for Freightliner. Lyrics for acoustic guitar and electric guitar. Tablatures and chords are parodies/interpretations of the original songs. You may use it for private study, scholarship, research or language learning purposes only